Oops, an error
Loading. Please wait.

Reality Chords

34 views 1 this week
no commentswrite comment
1 2 3 4 5
3 more votes to show rating
add to favorites
launch autoscroll
font size
0
reset
transpose
0
reset
display chords
guitar tuner
Autoscroll
slow
fast
+/-
esc
set tempo
stop
Help us to improve Ultimate-Guitar.com Take our survey!
×
Author
About this tab version
There are no other guitar tabs for this song on UG. Was this info helpful? Yes No
Reality
By Newsboys
Album "Take Me to Your Leader"

[Intro] 

    1   2   3 + 4 + | 1   2   3 + 4 + | 1   2   3 + 4 + | 1   2   3   4   | 

e-----------0-0-----|---------3-3-----|---------0-0-----|-----------------| 
b---3-------------1-|---------------3-|---------------1-|-----------------| 
G---0-------0-0-----|---------------0-|---------0-0-----|-----------------| 
D-----------------3-|---------3-3-----|---------------3-|-----------------| x2
A-------------------|-----------------|-----------------|-----------------| 
E-------------------|-----------------|-----------------|-----------------| 
    G       C     F                 G           C     F 
 


[Verse 1]
G 
  Mom and Dad, I'm fine How are you? 
       F                      C 
I have joined a small circus (that much is true). 
      G 
I'm a little malnourished, but try to relax. 
          F                           C 
Could you find a better photo for the milk carton backs? Send money. 


F 
  Runaway -- where's your head? 
G 
  Dreamer's dreams are grounded 


[Chorus]
   G            C           F 
in reality that comes from above
  
       G               C         F 
God is calling there's no bigger love
         
           G          C           F 
It's his reality that welcomes us back 

            G 
Trust and obey 

         C        F 
there is no other way 

G (hold) 


[Verse 2] 
G 
Mom and Dad, I'm fair. How's life? 
         F                        C 
Lent the money you sent me to the clown with the knife. 
      G 
My career as an acrobat hasn't begun, 
        F                               C 
but I'm busy giving blood and shoveling elephant dung. Send money. 

F 
  Runaway -- Why so tense? 
G 
  Dreamer's dreams will make sense 


[Chorus]
   G            C           F 
in reality that comes from above
  
       G               C         F 
God is calling there's no bigger love
         
           G          C           F 
It's his reality that welcomes us back 

            G 
Trust and obey 

         C        F 
there is no other way  


[Instrumental] 

e---------------0-|--0---1-1----0--|-0-------------| 
b---1----3-3------|----------------|-----3-3----1--| 
G--(0)------------|----------------|---------------| 
D--(2)------------|----------------|---------------|   x2 
A--(3)------------|----------------|---------------| 
E-----------------|----------------|---------------|
 

[Bridge]
F 
  Runaway -- blowing smoke 
G 
  your folks are worried (and going broke) 

F 
after the fall is an all-new episode 
G 
  reality is the high road 


[Chorus]
       G            C           F 
in the reality that comes from above
  
       G               C         F 
God is calling there's no bigger love

           G          C           F 
It's his reality that welcomes us back 

            G 
Trust and obey 

         C        F 
there is no other way  


[End]
   G            C           F 
in reality that comes from above 

       G 
God is calling 


----------------------------------------------------------------------------------
Thanks to Andre Braz (vasodebarro) from e-Chords for his excellent help with this.
Suggest correction
Give kudos to tab author, rate the tab!
1 2 3 4 5
comments
print report bad tab
guest
You may want to rate the tab now too:
select rating
Wanna post a correction for this tab? Suggest correction