Oops, an error
Loading. Please wait.

Shine Bass Tab

651 views 1 this week
no commentswrite comment
1 2 3 4 5
please rate
add to favorites
launch autoscroll
font size
0
reset
guitar tuner
Autoscroll
slow
fast
+/-
esc
set tempo
stop
Help us to improve Ultimate-Guitar.com Take our survey!
×
Author
Difficulty
intermediate
Hi! The bass comes in at 00:18  
The tabs should be all right. So enjoy! :)
 
Intro

G|---------9-10-12-7--------10-14-15-17-7-----------99-77-55--10-9-5-7-3-|
D|-----------------------------------------------------------------------(x2)
A|3--3-0-2-----------3--3-0---------------3--3-0-2-----------------------|
E|-----------------------------------------------------------------------|

Verse 1

G|-----------------------------------------------------------------------|
D|-----------------------------------------------------------------------|
A|8-8-8-8-8-8-8-8-7-7-7-7-7-7-7-7-12(x8)-10(x8)--------------------------|
E|-----------------------------------------------------------------------|

G|-----------------------------------------------------------------------|
D|-----------------------------------------------------------------------|
A|8-8-8-8-8-8-8-8-7-7-7-7-7-7-7-7-3-3-3-3-3-3-3-3-3-3-3-3-3-3-5-7--------|
E|-----------------------------------------------------------------------|

G|-----------------------------------------------------------------------|
D|-----------------------------------------------------------------------|
A|8-8-8-8-8-8-8-8-7-7-7-7-7-7-7-7-12-12-12-12-12-12/15-15-10(x8)---------|
E|-----------------------------------------------------------------------|

G|--------------------------------| 
D|--------------------------------|
A|8-8-8-8-8-8-8-8-7-7-7-7-7-7-7-7-|
E|--------------------------------|

Chorus

G|---------9-10-12-7--------10-14-15-17-7-----------99-77-55--10-9-5-7-3-|
D|-----------------------------------------------------------------------(x2)
A|3--3-0-2-----------3--3-0---------------3--3-0-2-----------------------|
E|-----------------------------------------------------------------------|

Verse 2


G|----------------------------------------------------------|
D|----------------------------------------------------------|
A|8-8-8-8-8-8/10-10-7-7-7-7-7-7-7-7-12-12-12-12-12-12/15-15-|
E|----------------------------------------------------------|

G|------------------------------|
D|------------------------------|
A|10-10-10-10-10-10/12/14-15-12-|
E|------------------------------|


G|-----------------------------------------------------------------------|
D|-----------------------------------------------------------------------|
A|8-8-8-8-8-8-8-8-7-7-7-7-7-7-7-7-3-3-3-3-3-3-3-3-3-3-3-3-3-3-5-7--------|
E|-----------------------------------------------------------------------|


G|----------------------------------------------------------|
D|----------------------------------------------------------|
A|8-8-8-8-8-8/10-10-7-7-7-7-7-7-7-7-12-12-12-12-12-12/15-15-|
E|----------------------------------------------------------|

G|------------------------------|
D|------------------------------|
A|10-10-10-10-10-10/12/14-15-12-|
E|------------------------------|

G|-----------------------------------|
D|-----------------------------------|
A|8-8-8-8-8-8-8-8-10-10-10-7---------|
E|---------------------------3-3-3-3-|

Chorus

G|---------9-10-12-7--------10-14-15-17-7-----------99-77-55--10-9-5-7-3-|
D|-----------------------------------------------------------------------| (x2)
A|3--3-0-2-----------3--3-0---------------3--3-0-2-----------------------|
E|-----------------------------------------------------------------------|

Interlude

G|-----------------------------------------------------------------------|
D|-----------------------------------------------------------------------|
A|8-8-8-8-8-8-8-8-7-7-7-7-7-7-7-7-5-5-5-5-5-5-5-5-3-3-3-3-3-3-3-3--------|
E|-----------------------------------------------------------------------|

G|-----------------------------------------------------------------------|
D|-----------------------------------------------------------------------|
A|--------------------------------------------------------8-8-8-7--------|
E|6-6-6-6-6-6-6-6-5-5-5-5-5-5-5-5/10-10-10-10-10-10-10-10---------3-3-3-3|

Chorus

G|---------9-10-12-7--------10-14-15-17-7-----------99-77-55--10-9-5-7-3-|
D|-----------------------------------------------------------------------(x2)
A|3--3-0-2-----------3--3-0---------------3--3-0-2-----------------------|
E|-----------------------------------------------------------------------|

G|-----------------------------------------------------------------------|
D|-----------------------------------------------------------------------|
A|------------R-------------E------------S-------------T-----------------(x2)
E|-----------------------------------------------------------------------|

Chorus

G|---------9-10-12-7--------10-14-15-17-7-----------99-77-55--10-9-5-7-3-|
D|-----------------------------------------------------------------------(x2)
A|3--3-0-2-----------3--3-0---------------3--3-0-2-----------------------|
E|-----------------------------------------------------------------------|

G|-----------------------------------------------------------------------|
D|-----------------------------------------------------------------------|
A|-3---------------------------------------------------------------------|
E|-----------------------------------------------------------------------|
Suggest correction
What's this?
You can suggest a correction to this tab. Community and Mods will review your correction and vote to approve or reject it.
comments
We did not receive enough feedback on this tab! Please rate:
print report bad tab
1 2 3 4 5
guest
You may want to rate the tab now too:
select rating
Please do not post tabs as comments. Select "correction" instead!