Oops, an error
Loading. Please wait.

Your Love Never Fails Tab

11,193 views 12 this week
no commentswrite comment
1 2 3 4 5
x 4
add to favorites
launch autoscroll
font size
0
reset
how to read this tab
guitar tuner
Autoscroll
slow
fast
+/-
esc
set tempo
stop
Help us to improve Ultimate-Guitar.com Take our survey!
×
Author
Difficulty
novice
INTRO
Lead:
e|-x-----x-----x-----x------|
B|-11----11----11----10-----|
G|-10----10----10----10-----| x 2
D|--------------------------|
A|--------------------------|
E|--------------------------|

rhythm:
e|-x--x---x----x----x------------|
B|-x--x---x----x----x------------|
G|-12-10--8----x----10-----------|
D|-12-10--8----8----10-----------|
A|-10-8---6----8----8------------|
E|-x--x---x----6----x------------|

VERSE:
Chord Layout: 6,4,1,5
rhythm:
e|--------------------------|
B|--------------------------|
G|--------------------------| X4
D|-5555------8888-----------|
A|------6666------8888------|
E|--------------------------|

Lead:
e|-10---x----6----x---------|
B|-11---8----6----10--------|
G|-12---8----7----10--------| X 2 (lighty)
D|-12---8----8----10--------|
A|-10---6----8----8---------|
E|-x----x----6----x---------|

e|-x-----x-----x-----x------|
B|-11----11----11----10-----|
G|-10----10----10----10-----| x 2
D|--------------------------|
A|--------------------------|
E|--------------------------|

CHORUS: chord layout: 4,1,5,2 x 2 (short chorus)
rhythm:
e|--------------------------------|
B|--------------------------------|
G|-8----------10------------- x 2-|
D|-8----8-----10----10------------|
A|-6----8-----8-----10------------|
E|------6-----------8-------------|

LeaD:
e|-x----x-----x-----x-------------------|
B|-8----11----10----8-------------------|
G|-8----10----10----8-------------  x 2-|
D|-x----x-----x-----x-------------------|
A|-x----x-----x-----x-------------------|
E|-x----x-----x-----x-------------------|


Interlude:Lead min=1:06
e|---------------------------|
B|---------------------------|
G|-12--10--------------------|
D|---------12----------------|
A|---------------------------|
E|---------------------------|

INTERLuDE 2:(same as intro)
rhythm guitar:
e|-x--x---x----x----x------------|
B|-x--x---x----x----x------------|
G|-12-10--8----x----10-----------|
D|-12-10--8----8----10-----------|
A|-10-8---6----8----8------------|
E|-x--x---x----6----x------------|

Lead:
e|-x-----x-----x-----x------|
B|-11----11----11----10-----|
G|-10----10----10----10-----|
D|--------------------------|
A|--------------------------|
E|--------------------------|

VERSE 2: Chords: 6,4,1,5 x 4
rhythm:
e|--------------------------|
B|--------------------------|
G|--------------------------| X4
D|-5555------8888-----------|
A|------6666------8888------|
E|--------------------------|

LeAD:
e|----------------------------------------------------|
B|----------------------------------------------------|
G|----------------------------------------------------|
D|------------------------------------7-8-7-----------|
A|------------8-10-10-10-8-10-10-10---------10--------|
E|----------------------------------------------------|

e|----------------------------------------------------|
B|----------------------------------------------------|
G|----------------------------------------------------|
D|----------------------------------------------------|
A|------------8-10-10-10-8-10-10-10---10-10-10--------|
E|----------------------------------------------------|

Lead:
e|-x-----x-----x-----x------|
B|-11----11----11----10-----|
G|-10----10----10----10-----| x2
D|--------------------------|
A|--------------------------|
E|--------------------------|

CHORUS: (same as b4- straight power chords)
chords: 4,1,5,2 x 4
rhythm:
e|--------------------------------|
B|--------------------------------|
G|-8----------10------------- x 4-|
D|-8----8-----10----10------------|
A|-6----8-----8-----10------------|
E|------6-----------8-------------|

LeaD:
e|-x----x-----x-----x-------------------|
B|-8----11----10----8-------------------|
G|-8----10----10----8-------------  x 4-|
D|-x----x-----x-----x-------------------|
A|-x----x-----x-----x-------------------|
E|-x----x-----x-----x-------------------|


BRIDGE: Chords: 4,6,5
Lead:
e|--------------------------|
B|--------------------------|
G|-10h12--10----------------| x 6
D|-----------12-------------|
A|--------------------------|
E|--------------------------|

INTERLUDE: (min 2:50)
e|--------------------------------|
B|--------------------------------|
G|-10-12-12---10-12-12---10-12-12-|
D|--------------------------------|
A|--------------------------------|
E|--------------------------------|

CHORUS:
Chords: 4,1,5,2 x 4
rhythm:
e|--------------------------------|
B|--------------------------------|
G|-8----------10------------- x 4-|
D|-8----8-----10----10------------|
A|-6----8-----8-----10------------|
E|------6-----------8-------------|

LeaD:
e|-x----x-----x-----x-------------------|
B|-8----11----10----8-------------------|
G|-8----10----10----8-------------  x 4-|
D|-x----x-----x-----x-------------------|
A|-x----x-----x-----x-------------------|
E|-x----x-----x-----x-------------------|

INTERLuDE:(outro)
rhythm guitar:
e|-x--x---x----x----x------------|
B|-x--x---x----x----x------------|
G|-12-10--8----x----10-----------|
D|-12-10--8----8----10-----------|
A|-10-8---6----8----8------------|
E|-x--x---x----6----x------------|

Lead:
e|-x-----x-----x-----x------|
B|-11----11----11----10-----|
G|-10----10----10----10-----|
D|--------------------------|
A|--------------------------|
E|--------------------------|

>>finish
If you enjoyed my tab or think something should be added to it please message me or add 
me as a friend.
Suggest correction
comments
print report bad tab
guest
You may want to rate the tab now too:
select rating
Wanna post a correction for this tab? Suggest correction