Oops, an error
Loading. Please wait.

Streamline bass

version 1
version 1

Whole song

Interactive

by Newton
1,106 views 1 this week
2 commentsread comments
1 2 3 4 5
3 more votes to show rating
add to favorites
×
Save as Personal and add changes to this tab that will be seen only by you. Learn more ›
×
You can save this tab as Personal to edit and correct it or add notes. All changes will be seen only by you. Learn more »
launch autoscroll
font size
0
reset
guitar tuner
edit
Autoscroll
slow
fast
+/-
esc
set tempo
stop
Author
"Streamine"
Newton


Heres a fun little techno song you can play on the bass, you may have heard it on that 
Pepsi commercial. Its basicaly all octaves, and rather simple. Have fun.


There are two bass parts in the song. Heres the first one:

bass enters (o:38)

G|---10---------8---------6----------3----------5-------|
D|-------X4--------X4--------X4---------X2---------X2---|
A|-8----------6---------4----------1---------3----------|
E|------------------------------------------------------|



The second part is played during the synth melody thing. Its not to different from the 
first part at all. 

G|----10------------8-----------5-----------6-----------|
D|--------X4-----------X4-----------X4---------X4-------|
A|--8------------6------------3-----------4-------------|
E|------------------------------------------------------|



Yeah, thats pretty much it. Make sure you rate this please. 


            
            
Suggest correction
Creating personal tab
Creating personal tab
You can edit any tab online and save it as your Personal.

You can edit, replace or remove any tab part or add personal notes – all changes will be seen only by you.

Personal tabs can be accessed anytime from any device, even offline.
Learn more »
Give kudos to tab author, rate the tab!
1 2 3 4 5
comments
print report bad tab
2 comments total.
0 reply
hopeless4ever 10 Jun 22, 2006 11:19 AM

OH MY GOD! CAN YOU PLEEEEEASE TRANSLATE THIS TO A NOTE SHEET THAT I CAN PLAY ON A PIANO??! IT WOULD BE A GODSEND!!!!!!!!!!!!!

0 reply
Led_Zeppelin992 56 Aug 11, 2006 05:53 AM

...tis good

guest
You may want to rate the tab now too:
select rating
Wanna post a correction for this tab? Suggest correction