Oops, an error
Loading. Please wait.

Streamline intro tab

version 1
version 1

Interactive

by Newton
4,335 views 3 this week
4 commentsread comments
1 2 3 4 5
x 4
add to favorites
×
Save as Personal and add changes to this tab that will be seen only by you. Learn more ›
×
You can save this tab as Personal to edit and correct it or add notes. All changes will be seen only by you. Learn more »
launch autoscroll
font size
0
reset
how to read this tab
guitar tuner
edit
Autoscroll
slow
fast
+/-
esc
set tempo
stop
Difficulty
this is officially the coolest song ever!!

standard tuning

e-3-3-3-3-2-2-2-------------0-0-0-2-3-3-3-3-2-2-2-5-5-5-5-7-7-7----|
B----5-5-5-3-3-3-0-0-0-3-3-3---3-3-----5-5-5-3-3-3---7-7-7-8-8-8---|
G------------------------------------------------------------------|
D------------------------------------------------------------------|
A------------------------------------------------------------------|
E------------------------------------------------------------------|

AND THAT IS HOW SIMPLE THIS SONG IS. PLAY IT FOR ALL YOUR FRIENDS AND TELL THEM HOW COOL 
ARE AND THEY WILL WORSHIP YOU LIKE CHEESE FOREVER

            
            
Suggest correction
Creating personal tab
Creating personal tab
You can edit any tab online and save it as your Personal.

You can edit, replace or remove any tab part or add personal notes – all changes will be seen only by you.

Personal tabs can be accessed anytime from any device, even offline.
Learn more »
comments
print report bad tab
4 comments total. Showing first comments.
0 reply
sk8punk49 59 Jul 28, 2006 10:43 PM

DUDE! , like not the greatest for playing on guitar.....But HELLS YEAH THIS IS THE COOLEST SONG XD!!!

0 reply
bJoelFan13 226 Oct 10, 2006 07:31 PM

k I think u got one part wrong but the song is so great that thats ok...
e-3-3-3-3-2-2-2--------------0-0-0-0-3-3-3-3-2-2-2-5-5-5-5-7-7-7---|
B----5-5-5-3-3-3-0-00-3-0-3-0---3-3-----5-5-5-3-3-3---7-7-7-8-8-8--|
G------------------------------------------------------------------|
D------------------------------------------------------------------|
A------------------------------------------------------------------|
E------------------------------------------------------------------|

0 reply
BCrichwarlockz1 10 Mar 01, 2008 07:11 PM

this the coolest song ever... i think it should be the new national anthem lol

guest
Wanna post a correction for this tab? Suggest correction