Oops, an error
Loading. Please wait.

All I Got Tab

version 3
version 3

Whole song

Interactive

6,051 views 8 this week
no commentswrite comment
1 2 3 4 5
please rate
add to favorites
launch autoscroll
font size
0
reset
how to read this tab
guitar tuner
Tab Pro tools
  • play this tab
  • loop segment
  • change instrument
  • show fretboard
  • metronome
×
Best way to learn
"All I Got"
Autoscroll
slow
fast
+/-
esc
set tempo
stop
Difficulty
intermediate
-----------------------------------------------------------------------
All I Got - Newton Faulkner


this is my best shot at playin the whole song
used some of the other tabs to get the intro and verse right
i hope it's right and it sounds right when i play it
any suggestions welcome email me if u figure out how to play it better

Tabbed by:Eoin
Email:Every1culisdead@hotmail.com

Tuning:Eadgbe (capo6)

all notes are relative to the capo (5th with capo is 11th without)



 INTRO:This is only on the album version
e|---------------------------------------------------------------------------|
B|----0-----0-----1-----1-----3-----3-----7-----7-----8-----8-----8----------|
G|----0-----0-----0-----0-----0-----0-----0-----0-----0-----0-----0----------|
D|---------------------------------------------------------------------------|
A|-------------------0-----0-----2-----2-----5-----5-----7-----7-----7-------|
E|-------3-----3-------------------------------------------------------------|

e|---------------------------------------------------------------------------|
B|--8/10/7-----7-----7-----7/8/3/5-------------------------------------------|
G|--0----0-----0-----0-----0-------------------------------------------------|
D|---------------------------------------------------------------------------|
A|----------5-----5-----5----------------------------------------------------|
E|---------------------------------------------------------------------------|


  Verse:this is where the single version starts "All I gotta do"
e|---------------------------------------------------------------|
B|-----5/3---3--0-----0-----0-----0----0--0h1p0---0--------------|
G|-----4/2---2--0-----0-----0-----0----0--0-----0----------------|
D|---------------------------------------------------------------|
A|---------------------------------------------------------------|
E|--0------2----3--3-----3-----3-----3---------------------------|

e|-------------------------------3--------------|
B|-----5/3-----3---0-----0-1-3------------------|
G|-----4/2-----2---0-----0-0-0-0---0------------|
D|----------------------------------------------|
A|----------------------------------------------|
E|--0-------2------3--3-------------------------|
(x6)


 Bridge: " And i know what you're Thinkin', "

    B     B     C     C
e|-----2-----2-----3----3-3--|
B|-----4-----4-----5----5-5--|
G|-----4-----4-----5----5-5--|
D|---------------------------|
A|--2-----2-----3-----3------|
E|---------------------------|

e|---------------------------------------------------------------|
B|-----5/3---3--0-----0-----0-----0----0--0h1p0---0--------------|
G|-----4/2---2--0-----0-----0-----0----0--0-----0----------------|
D|---------------------------------------------------------------|
A|---------------------------------------------------------------|
E|--0------2----3--3-----3-----3-----3---------------------------|

    B     B     C     C
e|-----2-----2-----3----3-3--|
B|-----4-----4-----5----5-5--|
G|-----4-----4-----5----5-5--|
D|---------------------------|
A|--2-----2-----3-----3------|
E|---------------------------|

e|------------------|
B|----1-----1--3----|
G|----2-----2--3----|
D|----2-----2--3----|
A|-0-----0----------|
E|------------------|


  Chorus:"Everywhere I look..."
       G   Em7       D      Cadd9
e|------3-----3-----2h3----3------|
B|------3-----3-----3------3------|
G|------0-----0-----2------0------|
D|---------------0----------------|
A|---------2------------3---------|
E|---3----------------------------|(x4)



  Interlude:"And i Hope that you found it..."
    D    D     D     D     Cadd9 Cadd9  Cadd9 Cadd9      (play first time)
e|---2-----3-----2-----2-----3-----3-----3-----3--|     |-----------------------------|
B|---3-----3-----3-----3-----3-----3-----3-----3--|     |-----------------------------|
G|---2-----2-----2-----2-----0-----0-----0-----0--|     |----------0---2--------------|
D|------0-----0-----0-----0-----------------------|     |----0--4---------0--2--4-----|
A|------------------------------3-----3-----3-----|     |--------------------------2--|
E|------------------------------------------------|(x2) |-----------------------------|


    (play second time)
e|-----------------------------------------------|
B|-----------------------------------------------|
G|-----------0--2--------------0--2--------------|
D|-----0--4--------0--2--4--4--------0--2--4-----|
A|--------------------------------------------2--|
E|-----------------------------------------------|


Outro:
e|---------------------------------------------------------------|
B|-----5/3---3--0-----0-----0-----0----0--0h1p0---0--------------|
G|-----4/2---2--0-----0-----0-----0----0--0-----0----------------|
D|---------------------------------------------------------------|
A|---------------------------------------------------------------|
E|--0------2----3--3-----3-----3-----3---------------------------|

  (slows tempo at end)

e|----------------------|
B|-----5/3-----3----0---|
G|-----4/2-----2----0---|
D|----------------------|
A|----------------------|
E|--0-------2-------3---|


Song layout:
Intro
Verse
Bridge
Chorus
Verse
Bridge
Chorus
Interlude
Chorus
Outro



| /  slide up
| \  slide down
| h  hammer-on
| p  pull-off
| ~  vibrato
| +  harmonic
| x  Mute note
===============================================================================
comments
We did not receive enough feedback on this tab! Please rate:
print report bad tab
1 2 3 4 5
I want to post or [tab]
guest
You may want to rate the tab now too:
select rating
Please do not post tabs as comments. Select "correction" instead!