Oops, an error
Loading. Please wait.

All I Got tab

version 4
version 4

Whole song

Interactive

94 views 1 this week
no commentswrite comment
1 2 3 4 5
3 more votes to show rating
add to favorites
×
Save as Personal and add changes to this tab that will be seen only by you. Learn more ›
×
You can save this tab as Personal to edit and correct it or add notes. All changes will be seen only by you. Learn more »
launch autoscroll
font size
0
reset
how to read this tab
guitar tuner
edit
Autoscroll
slow
fast
+/-
esc
set tempo
stop
About this tab version
Includes variations on how to play the chorus. Was this info helpful? Yes No
Newton Faulkner's 'All i got' single version.
https://www.youtube.com/watch?v=0PZ4wXGP-rE

I've not added the 'middle bit' because i haven't learnt it yet, however, 
rest assured i shall update when i do. This is my first tab so if there is anything wrong please
message me with your criticisms.

Capo on the 6th, standard tuning.


[Verse]

e|-------------------------------------------------------------3-------------|
B|--------5/3---3--0--0--0-1-0--------------5/3--3--0---0-1-3----------------|
G|--------4/2---2--0--0--------0------------4/2--2--0------------------------|
D|---------------------------------------------------------------------------|
A|---------------------------------------------------------------------------|
E|---0----------2--3--3-----------------0--------2--3------------------------|x6


[Bridge]

e|---------------------------------------------------------------------------|
B|-----4----4----5----5-5-----------5/3---3--0--0--0-1-0---------------------|
G|-----4----4----5----5-5-----------4/2---2--0--0--------0-------------------|
D|---------------------------------------------------------------------------|
A|----2----2----3----3-------------------------------------------------------|
E|------------------------------0---------2--3--3----------------------------|

e|---------------------------------------------------------------------------|
B|-----4----4----5----5-5----------------------------------------------------|
G|-----4----4----5----5-5----2-----2----3------------------------------------|
D|---------------------------2-----2----3------------------------------------|
A|----2----2----3----3------0-----0-----3------------------------------------|
E|---------------------------------------------------------------------------|


[Chorus]

The basics to build around.
e|------3----3----2----3-----------------------------------------------------|
B|------3----3----3----3-----------------------------------------------------|
G|------0----0----2----0-----------------------------------------------------|
D|--------------0------------------------------------------------------------|
A|---------2---------3-------------------------------------------------------|
E|----3----------------------------------------------------------------------|x4


[Chorus Variation] 

The way i play.
e|------3----3----2---3------------------------------------------------------|
B|------3----3----3---3------------------------------------------------------|
G|------0----0----2---0------------------------------------------------------|
D|--------------0------------------------------------------------------------|
A|---------2---0------3------------------------------------------------------|
E|----3---3------------------------------------------------------------------|x4


[Verse]

e|-------------------------------------------------------------3-------------|
B|--------5/3---3--0--0--0-1-0--------------5/3--3--0---0-1-3----------------|
G|--------4/2---2--0--0--------0------------4/2--2--0------------------------|
D|---------------------------------------------------------------------------|
A|---------------------------------------------------------------------------|
E|---0----------2--3--3-----------------0--------2--3------------------------|x6


[Bridge]

e|---------------------------------------------------------------------------|
B|-----4----4----5----5-5-----------5/3---3--0--0--0-1-0---------------------|
G|-----4----4----5----5-5-----------4/2---2--0--0--------0-------------------|
D|---------------------------------------------------------------------------|
A|----2----2----3----3-------------------------------------------------------|
E|------------------------------0---------2--3--3----------------------------|

e|---------------------------------------------------------------------------|
B|-----4----4----5----5-5----------------------------------------------------|
G|-----4----4----5----5-5----2-----2----3------------------------------------|
D|---------------------------2-----2----3------------------------------------|
A|----2----2----3----3------0-----0-----3------------------------------------|
E|---------------------------------------------------------------------------|


[Chorus]

The basics to build around.
e|------3----3----2----3-----------------------------------------------------|
B|------3----3----3----3-----------------------------------------------------|
G|------0----0----2----0-----------------------------------------------------|
D|--------------0------------------------------------------------------------|
A|---------2---------3-------------------------------------------------------|
E|----3----------------------------------------------------------------------|x4


[Chorus Variation] 

The way i play.
e|------3----3----2---3------------------------------------------------------|
B|------3----3----3---3------------------------------------------------------|
G|------0----0----2---0------------------------------------------------------|
D|--------------0------------------------------------------------------------|
A|---------2---0------3------------------------------------------------------|
E|----3---3------------------------------------------------------------------|x4


[Middle Part]


[Chorus]

The basics to build around.
e|------3----3----2----3-----------------------------------------------------|
B|------3----3----3----3-----------------------------------------------------|
G|------0----0----2----0-----------------------------------------------------|
D|--------------0------------------------------------------------------------|
A|---------2---------3-------------------------------------------------------|
E|----3----------------------------------------------------------------------|x8


[Chorus Variation] 

The way i play.
e|------3----3----2---3------------------------------------------------------|
B|------3----3----3---3------------------------------------------------------|
G|------0----0----2---0------------------------------------------------------|
D|--------------0------------------------------------------------------------|
A|---------2---0------3------------------------------------------------------|
E|----3---3------------------------------------------------------------------|x8


[Outro]

e|-------------------------------------------------------------3-------------|
B|--------5/3---3--0--0--0-1-0--------------5/3--3--0---0-1-3----------------|
G|--------4/2---2--0--0--------0------------4/2--2--0------------------------|
D|---------------------------------------------------------------------------|
A|---------------------------------------------------------------------------|
E|---0----------2--3--3-----------------0--------2--3------------------------|x2



************************************

| /  Slide up

************************************

            
            
Suggest correction
Creating personal tab
Creating personal tab
You can edit any tab online and save it as your Personal.

You can edit, replace or remove any tab part or add personal notes – all changes will be seen only by you.

Personal tabs can be accessed anytime from any device, even offline.
Learn more »
Give kudos to tab author, rate the tab!
1 2 3 4 5
comments
print report bad tab
guest
You may want to rate the tab now too:
select rating
Wanna post a correction for this tab? Suggest correction