Oops, an error
Loading. Please wait.

Feels Like Home Tab

version 1
version 1

Whole song

Interactive

50,120 views 27 this week
6 commentsread comments
1 2 3 4 5
x 9
add to favorites
×
Save as Personal and add changes to this tab that will be seen only by you. Learn more ›
launch autoscroll
font size
0
reset
how to read this tab
guitar tuner
Autoscroll
slow
fast
+/-
esc
set tempo
stop
Author
Difficulty
Capo
intermediate
4th fret
Feels Like Home                     


          Newton Faulkner

Acoustic Guitar (Capo 4)



      S  S S S S  S E  S  S  S  S S S  E   
e|-------0-----------5s-7s-5p-0-L-2s-4--|
B|--5s-7---7-5p-0-----------------------|
G|--------------------------------------|
D|-------------------5s-7s-5p-0-L-2s-4--|
A|--------------------------------------|
E|----------------0---------------------|


    T             T            T   
    E  S  S  S  S E  S  S  S   S   
e|--------------------------------|
B|--------------------------------|
G|-------------------7s-9s-7p--0--|
D|-----2s-4s-2p-0-----------------|
A|--------------------------------|
E|--9-------------8-----------(0)-|


    T                               NH  
    S  S  S  S S S E  S S E  S S    E   
e|--4s-5s-4p-0-L-----------------<>12--|
B|-------------------------------<>12--|
G|--4s-5s-4p-0-L-----------------<>12--|
D|-------------------------------<>12--|
A|---------------x------x----x---<>12--|
E|--5--------------0--L---x----x-<>12--|


    T                               NH  
    S  S  S  S S S E  S S E  S S    E   
e|--4s-5s-4p-0-L-----------------<>12--|
B|-------------------------------<>12--|
G|--4s-5s-4p-0-L-----------------<>12--|
D|-------------------------------<>12--|
A|---------------x------x----x---<>12--|
E|--5--------------0--L---x----x-<>12--|


    T                               NH  
    S  S  S  S S S E  S S E  S S    E   
e|--4s-5s-4p-0-L-----------------<>12--|
B|-------------------------------<>12--|
G|--4s-5s-4p-0-L-----------------<>12--|
D|-------------------------------<>12--|
A|---------------x------x----x---<>12--|
E|--5--------------0--L---x----x-<>12--|


    T                                 
    S  S  S  S S S E  E  E   S S S S  
e|--4s-5s-4p-0-L---------------------|
B|-----------------------------------|
G|--4s-5s-4p-0-L---------0h--2-0-----|
D|-----------------------4-----------|
A|---------------x---------------5-3-|
E|--5--------------0-----------------|


              ^                          ^               
     E.  S E  E  E  E  E.  S    E.  S E  E  E  E  E.  S  
e|---------------------------|--------------------------|
B|-------0----0--L-----0---0-|------0----0--L-----0---0-|
G|-------0----0--L-----0---0-|------0----0--L-----0---0-|
D|-------0----0--L-----0---0-|------0----0--L-----0---0-|
A|---------------------------|--------------------------|
E|---5-----x--7--L--x--------|--4-----x--5--L--x--------|


             ^               
    E.  S E  E  E  E  E.  S  
e|--------------------------|
B|------0----0--L-----0---0-|
G|------0----0--L-----0---0-|
D|------0----0--L-----0---0-|
A|--------------------------|
E|--5-----x--7--L--x--------|


             ^                    
    E.  S E  E  E  E   S  S S  S  
e|-------------------------------|
B|------0----0-----0-------------|
G|------0----0-----0-------------|
D|------0----0-----4p--2p-0------|
A|--------------------------5p-3-|
E|--4-----x--5--x----------------|


             ^                          ^               
    E.  S E  E  E  E  E.  S    E.  S E  E  E  E  E.  S  
e|--------------------------|--------------------------|
B|------0----0--L-----0---0-|------0----0--L-----0---0-|
G|------0----0--L-----0---0-|------0----0--L-----0---0-|
D|------0----0--L-----0---0-|------0----0--L-----0---0-|
A|--------------------------|--------------------------|
E|--5-----x--7-----x--------|--4-----x--5--L--x--------|


             ^               
    E.  S E  E  E  E  E.  S  
e|--------------------------|
B|------0----0--L-----0---0-|
G|------0----0--L-----0---0-|
D|------0----0--L-----0---0-|
A|--------------------------|
E|--5-----x--7--L--x--------|


             ^                    
    E.  S E  E  E  E   S  S S  S  
e|-------------------------------|
B|------0----0-----0-------------|
G|------0----0-----0-------------|
D|------0----0-----4p--2p-0------|
A|--------------------------5p-3-|
E|--4-----x--5--x----------------|


    T                           T                         
    E  S  S  S  E.  H           E  S  S  S  E.  H         
e|-----2s-4s-2p-0---L--------|-----7s-9s-7p-5---L--------|
B|---------------------------|---------------------------|
G|-----2s-4s-2p-0---L--------|-----7s-9s-7p-5---L--------|
D|---------------------------|---------------------------|
A|---------------------------|---------------------------|
E|--9------------------------|--8------------------------|


    T                             
    S  S  S  S E  E  Q    E   E   
e|--4s-5s-4p-0-L-----------------|
B|-------------------------------|
G|--4s-5s-4p-0-L-----------------|
D|-------------------------------|
A|-------------------------------|
E|--5-------------0--L----L---x--|


    T                             
    S  S  S  S E  E  Q    E   E   
e|--4s-5s-4p-0-L-----------------|
B|-------------------------------|
G|--4s-5s-4p-0-L-----------------|
D|-------------------------------|
A|-------------------------------|
E|--5-------------0--L----L---x--|


    T                             
    S  S  S  S E  E  Q    E   E   
e|--4s-5s-4p-0-L-----------------|
B|-------------------------------|
G|--4s-5s-4p-0-L-----------------|
D|-------------------------------|
A|-------------------------------|
E|--5-------------0--L----L---x--|


    T                                  
    S  S  S  S E  E  E  E   S S S S    
e|--4s-5s-4p-0-L---------------------||
B|-----------------------------------||
G|--4s-5s-4p-0-L--------0h--2-0-----*||
D|----------------------4-----------*||
A|------------------------------5-3--||
E|--5-------------0------------------||


    T                           T                         
    E  S  S  S  E.  H           E  S  S  S  E.  H         
e|-----2s-4s-2p-0---L--------|---------------------------|
B|---------------------------|---------------------------|
G|-----2s-4s-2p-0---L--------|-----7s-9s-7p-5---L--------|
D|---------------------------|---------------------------|
A|---------------------------|---------------------------|
E|--9------------------------|--8------------------------|


    T                           NH  
    S  S  S  S E  E  Q    E     E   
e|--4s-5s-4p-0-L-------------------|
B|---------------------------<>12--|
G|--4s-5s-4p-0-L-------------<>12--|
D|---------------------------<>12--|
A|---------------------------------|
E|--5-------------0--L----L--------|


    T                           NH  
    S  S  S  S E  E  Q    E     E   
e|--4s-5s-4p-0-L-------------------|
B|---------------------------<>12--|
G|--4s-5s-4p-0-L-------------<>12--|
D|---------------------------<>12--|
A|---------------------------------|
E|--5-------------0--L----L--------|


    T                           NH  
    S  S  S  S E  E  Q    E     E   
e|--4s-5s-4p-0-L-------------------|
B|---------------------------<>12--|
G|--4s-5s-4p-0-L-------------<>12--|
D|---------------------------<>12--|
A|---------------------------------|
E|--5-------------0--L----L--------|


    T                           NH  
    S  S  S  S E  E  Q    E     E   
e|--4s-5s-4p-0-L-------------------|
B|---------------------------<>12--|
G|--4s-5s-4p-0-L-------------<>12--|
D|---------------------------<>12--|
A|---------------------------------|
E|--5-------------0--L----L--------|


    T                           NH  
    S  S  S  S E  E  Q    E     E   
e|--4s-5s-4p-0-L-------------------|
B|---------------------------<>12--|
G|--4s-5s-4p-0-L-------------<>12--|
D|---------------------------<>12--|
A|---------------------------------|
E|--5-------------0--L----L--------|


    T                           NH  
    S  S  S  S E  E  Q    E     E   
e|--4s-5s-4p-0-L-------------------|
B|---------------------------<>12--|
G|--4s-5s-4p-0-L-------------<>12--|
D|---------------------------<>12--|
A|---------------------------------|
E|--5-------------0--L----L--------|


    T                           NH  
    S  S  S  S E  E  Q    E     E   
e|--4s-5s-4p-0-L-------------------|
B|---------------------------<>12--|
G|--4s-5s-4p-0-L-------------<>12--|
D|---------------------------<>12--|
A|---------------------------------|
E|--5-------------0--L----L--------|


    T                           NH  
    S  S  S  S E  E  Q    E     E   
e|--4s-5s-4p-0-L-------------------|
B|---------------------------<>12--|
G|--4s-5s-4p-0-L-------------<>12--|
D|---------------------------<>12--|
A|---------------------------------|
E|--5-------------0--L----L--------|


    S S  S S S S S  S E  S S E  E   
e|----2p-0-L-L-L-------------------|
B|----0----------------------------|
G|---------x-----------------------|
D|---------------------------------|
A|-------------x---------x---x-----|
E|--0--------x-L-4s-5-L----x----x--|


          |-3-|                       
    S S S T T T E  S  S E.  S S S E   
e|-----------------------------------|
B|------------------------------0----|
G|------0-x-x-x-------------------0--|
D|----4------------------------------|
A|--7-----------x--7s-8-L-----x------|
E|--------------------------x--------|


    S S  S S S S S  S E  S S E  E   
e|----2p-0-L-L-L-------------------|
B|----0----------------------------|
G|---------x-----------------------|
D|---------------------------------|
A|-------------x---------x---x-----|
E|--0--------x-L-4s-5-L----x----x--|


          |-3-|                       
    S S S T T T E  S  S E.  S S S E   
e|-----------------------------------|
B|------------------------------0----|
G|------0-x-x-x-------------------0--|
D|----4------------------------------|
A|--7-----------x--7s-8-L-----x------|
E|--------------------------x--------|


    S S  S S S S S  S E  S S E  E   
e|----2p-0-L-L-L-------------------|
B|----0----------------------------|
G|---------x-----------------------|
D|---------------------------------|
A|-------------x---------x---x-----|
E|--0--------x-L-4s-5-L----x----x--|


          |-3-|                       
    S S S T T T E  S  S E.  S S S E   
e|-----------------------------------|
B|------------------------------0----|
G|------0-x-x-x-------------------0--|
D|----4------------------------------|
A|--7-----------x--7s-8-L-----x------|
E|--------------------------x--------|


    S S  S S S S S  S E  S S E  E   
e|----2p-0-L-L-L-------------------|
B|----0----------------------------|
G|---------x-----------------------|
D|---------------------------------|
A|-------------x---------x---x-----|
E|--0--------x-L-4s-5-L----x----x--|


          |-3-|                       
    S S S T T T E  S  S E.  S S S E   
e|-----------------------------------|
B|------------------------------0----|
G|------0-x-x-x-------------------0--|
D|----4------------------------------|
A|--7-----------x--7s-8-L-----x------|
E|--------------------------x--------|


    S S S S H.              S S S S H.            
e|--------0-L------------|--------0-L------------|
B|-----------------------|-----------------------|
G|------0----------------|------0----------------|
D|----4------------------|----3------------------|
A|--5--------------------|--4--------------------|
E|-----------------------|-----------------------|


    E.  S E  E  H           E.  S E  E  Q     S  E.   
e|------7----4--L--------|------7----4--L------------|
B|------0----0--L--------|------0----0--L------------|
G|------0----0--L--------|------0----0--L------------|
D|------7----4--L--------|------7----4--Ls----2p-0---|
A|-----------------------|---------------------------|
E|--5--------0--L--------|--5-----x--0--L------------|


                                                      NH  
    E.  S E  E  H           E.  S E  E  S S E  S S    E   
e|------7----4--L--------|------7----4--L----------------|
B|------0----0--L--------|------0----0--L----------<>12--|
G|------0----0--L--------|------0----0--L----------<>12--|
D|------7----4--L--------|------7----4--L----------<>12--|
A|-----------------------|----------------x----x---------|
E|--5--------0--L--------|--5--------0--L---x----x-------|


    T                               NH  
    S  S  S  S S S E  S S E  S S    E   
e|--4s-5s-4p-0-L-----------------------|
B|-------------------------------<>12--|
G|--4s-5s-4p-0-L-----------------<>12--|
D|-------------------------------<>12--|
A|---------------x------x----x---------|
E|--5--------------0--L---x----x-------|


    T                               NH  
    S  S  S  S S S E  S S E  S S    E   
e|--4s-5s-4p-0-L-----------------------|
B|-------------------------------<>12--|
G|--4s-5s-4p-0-L-----------------<>12--|
D|-------------------------------<>12--|
A|---------------x------x----x---------|
E|--5--------------0--L---x----x-------|


    T                               NH  
    S  S  S  S S S E  S S E  S S    E   
e|--4s-5s-4p-0-L-----------------------|
B|-------------------------------<>12--|
G|--4s-5s-4p-0-L-----------------<>12--|
D|-------------------------------<>12--|
A|---------------x------x----x---------|
E|--5--------------0--L---x----x-------|


    T                                
    S  S  S  S S S E  S S E  S S E   
e|--4s-5s-4p-0-L--------------------|
B|----------------------------------|
G|--4s-5s-4p-0-L--------------------|
D|----------------------------------|
A|---------------x------x----x------|
E|--5--------------0--L---x----x-x--|


    E.  E.  E  H         
e|----------------------|
B|------0---------------|
G|------0---------------|
D|------0---------------|
A|----------------------|
E|--5-------0--L--------|


     S S  S S S S S  S E  S S E  E   
e|-----2p-0-L-L-L-------------------|
B|-----0----------------------------|
G|----------x-----------------------|
D|----------------------------------|
A|--------------x---------x---x-----|
E|---0--------x-L-4s-5-L----x----x--|


          |-3-|                       
    S S S T T T E  S  S E.  S S S E   
e|-----------------------------------|
B|------------------------------0----|
G|------0-x-x-x-------------------0--|
D|----4------------------------------|
A|--7-----------x--7s-8-L-----x------|
E|--------------------------x--------|


    S S  S S S S S  S E  S S E  E   
e|----2p-0-L-L-L-------------------|
B|----0----------------------------|
G|---------x-----------------------|
D|---------------------------------|
A|-------------x---------x---x-----|
E|--0--------x-L-4s-5-L----x----x--|


    Repeat To Fade                                   
                       |-3-|                         
    S              S S T T T E  S  S E.  S S S E     
e|-------------------------------------------------||
B|-------------------------------------------0-----||
G|-------------------0-x-x-x-------------------0--*||
D|-----------------4------------------------------*||
A|--7------------------------x--7s-8-L-----x-------||
E|---------------------------------------x---------||


    S S  S S S S S  S E  S S E  E   
e|----2p-0-L-L-L-------------------|
B|----0----------------------------|
G|---------x-----------------------|
D|---------------------------------|
A|-------------x---------x---x-----|
E|--0--------x-L-4s-5-L----x----x--|


          |-3-|                       
    S S S T T T E  S  S E.  S S S E   
e|-----------------------------------|
B|------------------------------0----|
G|------0-x-x-x-------------------0--|
D|----4------------------------------|
A|--7-----------x--7s-8-L-----x------|
E|--------------------------x--------|


    S S  S S S S S  S E  S S E  E   
e|----2p-0-L-L-L-------------------|
B|----0----------------------------|
G|---------x-----------------------|
D|---------------------------------|
A|-------------x---------x---x-----|
E|--0--------x-L-4s-5-L----x----x--|


          |-3-|                        
    S S S T T T E  S  S E.  S S S E    
e|-----------------------------------||
B|------------------------------0----||
G|------0-x-x-x-------------------0--||
D|----4------------------------------||
A|--7-----------x--7s-8-L-----x------||
E|--------------------------x--------||



************************************

| p    Pull-off
| (n)  Ghost note
| x    Dead note
| h    Hammer-on
| *    Reprise

************************************
Suggest correction
comments
print report bad tab
6 comments total. Showing first comments.
0 reply
weaseltron 51 Apr 12, 2008 10:12 AM

good tab mate yeah, pretty hard to get the tapping bits right although have only been practicing this for 10 minutes so i guess theres still time :D Good tab though definately, cheers

+1 reply
ancientmoose 20 Apr 29, 2008 07:30 AM

in the outro and guitar breakk, instead of sliding from 7/8, slide from 6/7

nice tab - ive been looking for this for ages, thanks alot ;)

0 reply
graffitio_0321 32 Mar 09, 2009 11:53 AM

you forgot to mention that its played in open E tuning with the capo on four but its great.. thanks!

guest
You may want to rate the tab now too:
select rating
Wanna post a correction for this tab? Suggest correction