Oops, an error
Loading. Please wait.

Here Comes The Sun Tab

5,435 views 1 this week
no commentswrite comment
1 2 3 4 5
accurate
x 4
add to favorites
launch autoscroll
font size
0
reset
how to read this tab
guitar tuner
Autoscroll
slow
fast
+/-
esc
set tempo
stop
Help us to improve Ultimate-Guitar.com Take our survey!
×
Author
Difficulty
intermediate

I got this off of watching one of his videos for Guitar Labo and thought,
holy cow. so i watched it and i think it's more or less correct. here you go... My
Email is tommybparry@gmail.com for any corrections or requests.

(THE VIDEO'S ON http://www.youtube.com/watch?v=X-yipWuJkLE )

(OR YOUTUBE: NEWTON FAULKNER HERE SOMES THE SUN)

Tuning:  C F C F G C

   INTRO
|----------------------------------------------------2h4p2p0---|
|--------------------------------------------------------------|
|--------------------------------------------------------------|
|------0-0--------0-0-0------0-0----0-0-0------0-0-------------|
|--------------------------------------------------------------|
|--0-0-----0--0-0--------0-0-----0---------0-0-----0-----------|

|----------------------------5/7------------------------|
|-------------------------------------------------------|
|-------------------------------------------------------|
|------0-0--------0-0-0---------------0-0--------0-0-0--|
|-------------------------------------------------------|
|--0-0-----0--0-0--------0-0------0-0-----0--0-0--------|
           ^
       HARD PLUCK

   VERSE
|-----------------------------------------------|
|-----------------------------------------------|
|-----------------------------------------------|
|------0-0--------0-0-0------0-0--------0-0-0---|
|-----------------------------------------------|
|--0-0-----0--0-0--------0-0-----0--0-0---------|

|---------------------------------------------------|
|---------------------------------------------------|
|---------------------------------------------------|
|------5-5--------5-5-5------7-7--------7-7-7-------|
|---------------------------------------------------|
|--5-5-----5--5-5--------7-7-----7--7-7--------0----|
                                               ^
                                           HARD PLUCK
|-----------------------------------------------|
|-----------------------------------------------|
|-----------------------------------------------|
|------0-0--------0-0-0------0-0--------0-0-0---|
|-----------------------------------------------|
|--0-0-----0--0-0--------0-0-----0--0-0---------|

|-----------------------------------------------|
|-----------------------------------------------|
|-----------------------------------------------|
|------5-5--------5-5-5------7-7--------7-7-7---|
|-----------------------------------------------|
|--5-5-----5--5-5--------7-7-----7--7-7---------|

|------------------------4-0-2-4---|
|----------------------------------|
|----------------------------------|
|------0-0--------0-0-0------------|
|----------------------------------|
|--0-0-----0--0-0------------------|

|-----------------------------------------------|
|-----------------------------------------------|
|-----------------------------------------------|
|------5-5--------5-5-5------7-7--------7-7-7---|
|-----------------------------------------------|
|--5-5-----5--5-5--------7-7-----7--7-7---------|
                                                 FILL
|------0----------0--*12-----*7----*5----|     |--4-0-2-0--|
|------0----------0-----*12----*7----*5--|     |-----------|
|------2----------2----------------------|     |-----------|
|------0----------0----------------------|     |-----------|
|------2----------2----------------------|     |-----------|
|--0-0-----0--0-0------------------------|     |-----------|

   CHORUS(STRUM)
|--0--0--0---0--0--0---0--0--0---0--0--0--|--0--0--0---0--0--0---0--0--0---0--0--0--|
|--0--0--0---0--0--0---0--0--0---0--0--0--|--0--0--0---0--0--0---0--0--0---0--0--0--|
|--7--7--7---7--7--7---0--0--0---0--0--0--|--2--2--2---2--2--2---0--0--0---0--0--0--|
|--0--0--0---0--0--0---5--5--5---7--7--7--|--0--0--0---0--0--0---5--5--5---7--7--7--|
|--7--7--7---7--7--7---0--0--0---0--0--0--|--2--2--2---2--2--2---0--0--0---0--0--0--|
|----------------------5--5--5---7--7--7--|----------------------5--5--5---7--7--7--|

|--0--0--0--4-0-2-4---0--0--0---0--0--0---|
|--0--0--0--0-0-0-0---0--0--0---0--0--0---|
|--2--2--2--0-0-0-0---0--0--0---7--7--7---|
|--0--0--0--0-0-0-0---5--5--5---0--0--0---| -I THINK THE 7'S HERE
|--2--2--2------------0--0--0---0--0--0---|  BUT IT SOUNDS BETTER
|---------------------5--5--5---6--6--6---|

|--0-0---*12-----*7----*5-----4-2------|
|--0-0------*12----*7----*5-------0-0--| -CAN PLAY ON THE HIGH
|--2-2---------------------------------|   E STRING IF U WANT
|--0-0---------------------------------|
|--2-2---------------------------------|
|--------0-0-0-0-0-0-0-0-0-0-----------|

   VERSE 2(STRUM)
|--0--0--0--0--2h4p2p0--0-0--0---0--0-0--0-0-0-0--0-0-0-0--0---0--0-0---|
|--0--0--0--0-----------0-0--0---0--0-0--0-0-0-0--0-0-0-0--0---0--0-0---|
|--7--7--7--7-----------7-7--10--9--7-7--5-7-9-7--7-7-7-7--10--9--7-7---|
|--0--0--0--0-----------0-0--0---0--0-0--0-0-0-0--0-0-0-0--0---0--0-0---|
|--7--7--7--7-----------7-7--10--9--7-7--5-7-9-7--7-7-7-7--10--9--7-7---|
|-----------------------------------------------------------------------|

|--0-0-0-0--0-0--7-7-7--|
|--0-0-0-0--0-0--7-7-7--|
|--5-7-9-7--7-7--9-9-9--|
|--0-0-0-0--0-0--7-7-7--|
|--5-7-9-7--7-7--9-9-9--|
|----------------7-7-7--|

 CHORUS(STRUM)
|--0--0--0---0--0--0---0--0--0---0--0--0--|--0--0--0---0--0--0---0--0--0---0--0--0--|
|--0--0--0---0--0--0---0--0--0---0--0--0--|--0--0--0---0--0--0---0--0--0---0--0--0--|
|--7--7--7---7--7--7---0--0--0---0--0--0--|--7--7--7---7--7--7---0--0--0---0--0--0--|
|--0--0--0---0--0--0---5--5--5---7--7--7--|--0--0--0---0--0--0---5--5--5---7--7--7--|
|--7--7--7---7--7--7---0--0--0---0--0--0--|--7--7--7---7--7--7---0--0--0---0--0--0--|
|----------------------5--5--5---7--7--7--|----------------------5--5--5---7--7--7--|

|--0--0--0--4-0-2-4---0--0--0---0--0--0---|
|--0--0--0--0-0-0-0---0--0--0---0--0--0---|
|--2--2--2--0-0-0-0---0--0--0---7--7--7---|
|--0--0--0--0-0-0-0---5--5--5---0--0--0---| -I THINK THE 7'S HERE
|--2--2--2------------0--0--0---0--0--0---|  BUT IT SOUNDS BETTER
|---------------------5--5--5---6--6--6---|

|--0-0---*12-----*7----*5-----4-2---0---|
|--0-0------*12----*7----*5-------0-----|
|--2-2----------------------------------|
|--0-0----------------------------------|
|--2-2----------------------------------|
|--------0-0-0-0-0-0-0-0-0-0-0----------|

 INTRO(VERY SOFTLY)
|----------(0)-------------(0)---2h4p2p0---------(0)--------------(0)----0--|
|----------(0)-------------(0)-------------------(0)--------------(0)-2p0---|
|------7-7-(7)-------7-7-7-(7)---------------7-7-(7)--------7-7-7-(7)-------|
|----------(0)-------------(0)-------------------(0)--------------(0)-------|
|--7-7------7----7-7--------7------------7-7------7-----7-7--------7--------|
|-------------(0)-------------(0)-------------------(0)-------------(0)-----|
               ^               ^                     ^               ^
         SLAP(w/THUMB)         S                     S               S
|----------(0)--------------(0)------------(0)--------------0--|
|----------(0)--------------(0)------------(0)--------------0--|
|------7-7-(7)--------7-7-7-(7)--------7-7-(7)--------7-7-7-7--|
|----------(0)--------------(0)------------(0)--------------0--|
|--7-7------7-----7-7--------7-----7-7------7-----7-7-------7--|
|-------------(0)--------------(0)------------(0)--------------|
               ^                ^              ^
               S                S              S
Suggest correction new What's this?
You can suggest a correction to this tab. Community and Mods will review your correction and vote to approve or reject it.
comments
print report bad tab
guest
You may want to rate the tab now too:
select rating
Please do not post tabs as comments. Select "correction" instead!