Oops, an error
Loading. Please wait.

I Took It Out On You Tab

6,246 views 3 this week
no commentswrite comment
1 2 3 4 5
excellent!
x 1
add to favorites
launch autoscroll
font size
0
reset
how to read this tab
guitar tuner
Tab Pro tools
  • play this tab
  • loop segment
  • change instrument
  • show fretboard
  • metronome
Autoscroll
slow
fast
+/-
esc
set tempo
stop
Contributor
Tabbed by: shelikesmylicks
Email: guitarfreak_rick@hotmail.com

Song: I Took it out on You
Artist: Newton Faulkner
Album: Rebuilt by Humans
Tuning: Open C#

This was a fairly easy one to work out. Hopefully will have some others up shortly. Enjoy :)

Intro/Verse:
                  []        []       []        []        []          []     []      []
c#|--------------------------------------------4-------2---0---4-------2-----|
G#|--------------------------------------------0-0-----0---0---0-0-----0-----|
F |--------------12------------------12------------0---------------0-------0-|
C#|----12---0----------0---12---0----------0---------------------------------|
F#|--------------------------------------------------------------------------|
C#|-0---------0----------0--------0----------5-------5-------5-------5-------|

Chorus:

c#|---0----0----0--0-0-0----0-0-0---|
G#|---0----0----0--0-0-0----0-0-0---|
F |---0----1----3--5-5-5----0-0-0---|
C#|-0000-2222-4444-5-5-5----5-5-5---|
F#|-0000-0000-0000-5-5-5----5-5-5---|
C#|-0000-2222-4444-5-5-5----5-5-5---|


Bridge:

c#|---2--2-2---2--2-2---0--0-0---0--0-0---2--2-2---2--2-2---0--0-0---5--555--|
G#|---2--2-2---2--2-2---0--0-0---0--0-0---2--2-2---2--2-2---0--0-0---0--000--|
F |---5--5-5---5--5-5---5--5-5---5--5-5---5--5-5---5--5-5---5--5-5---5--555--|
C#|-22222222-22222222-55555555-55555555-22222222-22222222-55555555-55555555--|
F#|-22222222-22222222-55555555-55555555-22222222-22222222-55555555-55555555--|
C#|-22222222-22222222-55555555-55555555-22222222-22222222-55555555-55555555--|

Refrain:

c#|-0--0--0--0---0-0-0--0--0--0--------|
G#|-0--0--0--0---0-0-0--0--0--0--------|
F |-0--0--0--0---1-3-0--0--0--0---0-0--|
C#|-000000000000-0-0-444444444444-5-7--|
F#|-000000000000-0---555555555555-5-5--|
C#|-000000000000-0---555555555555-5-5--|

Final Chord

c#|-0--|
G#|-0--|
F |-0--|
C#|-0--|
F#|-5--|
C#|-5--|




Intro x2    (yeah yeah yeah yeah…)

Verse:
Of all the people in the world I took it out on you
Even after all the you've done for me what a thing to do
You won't let me down, don't let me down but I let you down its true
Until the end you'll be my friend no matter what I do

Chorus:
I took it, I took it, I took it out on you
I took it out on you

Verse:
I'm sorry for the things I said I didn't mean them at all
The one who's close that means the most and never lets me fall
I'm such a fool, I'm such a fool I didn't let you know
How bad I felt when you were trying to help and I would just tell you where to go

Chorus:
I took it, I took it, I took it out on you
I took it out on you

Bridge:
Oh now that it's done I'm forgiven
I don't know why I find this so hard to say
Now that it's done I'm forgiven
I'll make it up to you why'd you go away

Chorus:
I took it, I took it, I took it out on you
I took it out on you

Refrain:
oh, woah-oah-oah x4

Chorus:
I took it, I took it, I took it out on you
I took it, I took it, I took it out on you
I took it out on you

************************************

| /   slide up
| \   slide down
| h   hammer-on
| p   pull-off
| ~   vibrato
| <>   harmonic
| x   Mute note
| b   Bend
| pb  Pre-bend
| br  Bend release
| pbr Pre-bend release
| brb Bend release bend
| [] Hit the guitar with the base of your palm to create the percussion effect

************************************
comments
We did not receive enough feedback on this tab! Please rate:
print report bad tab
1 2 3 4 5
I want to post or [tab]
guest
You may want to rate the tab now too:
select rating
Please do not post tabs as comments. Select "correction" instead!