Oops, an error
Loading. Please wait.

Indecisive Tab

985 views 1 this week
2 commentsread comments
1 2 3 4 5
x 3
add to favorites
×
Save as Personal and add changes to this tab that will be seen only by you. Learn more ›
×
You can save this tab as Personal to edit and correct it or add notes. All changes will be seen only by you. Learn more »
save as personal
new!
launch autoscroll
font size
0
reset
how to read this tab
guitar tuner
Autoscroll
slow
fast
+/-
esc
set tempo
stop
Author
Difficulty
intermediate
xxxxxxxxxxxxxxxxxxxxxxxxxxxxxxxxxxxxxxxxxxxxxxxxxxxxxxxxxxxxxxxxxxxxxxxxxxxxxxxxxxxxxxxxxxxxxxxxxxxx
                                          I n d e c i s i v e
                                   S t u d i o   Z o o   ( 2 0 1 3 )
                                     N E W T O N   F A U L K N E R
xxxxxxxxxxxxxxxxxxxxxxxxxxxxxxxxxxxxxxxxxxxxxxxxxxxxxxxxxxxxxxxxxxxxxxxxxxxxxxxxxxxxxxxxxxxxxxxxxxxx


                   +--------------------------PLEASE NOTE--------------------------+
                   + This file is the work of Jordan Lapping and represents his    +
                   + transcription of the song. You may only use this file for     +
                   + private study, scholarship, or research. The contents may not +
                   + be duplicated for use with other websites without written     +
                   + permission. Thank you for understanding. Enjoy.               +
                   +---------------------------------------------------------------+


Tabbed by Jordan Lapping

Tuning: D G D F# A D

          [To match recording, further tune the guitar down a tone]


 VERSE 1:
    C                                  C
    1   2   3 a 4 + 1   2   3 a 4 +    1   2   3 a 4 + 1   2   3 a 4 +
c]----------------------------------|-----------------------------------|
G]----------------------------------|-----------------------------------|
E]--3---3---3-3---3-3---3---3-3---3-|--3---3---3-3---3-3---3---3-3---3--|
C]--4---4---4-4---4-4---4---4-4---4-|--4---4---4-4---4-4---4---4-4---4--|
F]----------------------------------|-----------------------------------|
C]--0---0---0-0---0-0---0---0-0---0-|--0---0---0-0---0-0---0---0-0---0--|

    F9maj7                             C
    1   2   3 a 4 + 1   2   3 a 4 +    1   2   3 a 4 + 1   2   3 a 4 +
c]----------------------------------|-----------------------------------|
G]----------------------------------|-----------------------------------|
E]--3---3---3-3---3-3---3---3-3---3-|--3---3---3-3---3-3---3---3-3---3--|
C]--4---4---4-4---4-4---4---4-4---4-|--4---4---4-4---4-4---4---4-4---4--|
F]--0---0---0-0---0-0---0---0-0---0-|-----------------------------------|
C]----------------------------------|--0---0---0-0---0-0---0---0-0---0--|

    C                                  C
    1   2   3 a 4 + 1   2   3 a 4 +    1   2   3 a 4 + 1   2   3 a 4 +
c]----------------------------------|-----------------------------------|
G]----------------------------------|-----------------------------------|
E]--3---3---3-3---3-3---3---3-3---3-|--3---3---3-3---3-3---3---3-3---3--|
C]--4---4---4-4---4-4---4---4-4---4-|--4---4---4-4---4-4---4---4-4---4--|
F]--x-------------------------------|-----------------------------------|
C]--0-------------------------------|-----------------------------------|

    F9maj7                             C
    1   2   3 a 4 + 1   2   3 a 4 +    1   2   3 a 4 + 1   2   3 a 4 +
c]----------------------------------|-----------------------------------|
G]----------------------------------|-----------------------------------|
E]--3---3---3-3---3-3---3---3-3---3-|--3---3---3-3---3-3---3---3-3---3--|
C]--4---4---4-4---4-4---4---4-4---4-|--4---4---4-4---4-4---4---4-4---4--|
F]--0-------------------------------|--x--------------------------------|
C]----------------------------------|--0--------------------------------|

C
  Evidence of your time here haunts me
                                          F9maj7
  Everywhere I look I see you breaking my heart
               C
  Breaking my heart
C
  Indecisive, you can't stand silence
                                          F9maj7
  You're complicated but I know all that you are
               C
  All that you are



 REFRAIN 1:
    Am(no5) G(no5)  C(no3)     F
    1   2   3   4   1   2      3   4   1   2   3   4   5   6
c]--------------------------|-----------------------------------|
G]--5-------4-------0-------|--2--------------------------------|
E]--5-------3-------8-------|--1--------------------------------|
C]-----------------(0)------|--0--------------------------------|
F]--4-------2-------7-------|--0--------------------------------|
C]--------------------------|-----------------------------------|

    Am(no5) G(no5)     C*
    1   2   3   4      1   2   3 a 4 + 1   2   3 a 4 +
c]------------------|-----------------------------------|
G]--5-------4-------|-----------------------------------|
E]--5-------3-------|-----------------------------------|
C]------------------|--0--------------------------------|
F]--4-------2-------|-----------------------------------|
C]------------------|--0---0---0-0---0-0---0---0-0---0--|

    Am(no5) G(no5)       C(no5)     F
  I know in time it will fade not grow
        Am(no5)    G(no5) C*
  But I don't want it to go



 CHORUS 1:
    F(no5)          C(no5)             Em(no5)         F(no5)
    1   2   3 a 4 + 1   2   3 a 4 +    1   2   3 a 4 + 1   2   3 a 4 +
c]----------------------------------|-----------------------------------|
G]----------------------------------|-----------------------------------|
E]--5---5---5-5---5-0---0---0-0---0-|--3---3---3-3---3-5---5---5-5---5--|
C]--5---5---5-5---5-0---0---0-0---0-|--4---4---4-4---4-5---5---5-5---5--|
F]----------------------------------|-----------------------------------|
C]--5---5---5-5---5-0---0---0-0---0-|--4---4---4-4---4-5---5---5-5---5--|

    F(no5)          G(no5)             Am              Asus4
    1   2   3 a 4 + 1   2   3 a 4 +    1   2   3 a 4 + 1   2   3 a 4 +
c]----------------------------------|-----------------------------------|
G]----------------------------------|-----------------------------------|
E]--5---5---5-5---5-7---7---7-7---7-|--8---8---8-8---8-10--10--1010--10-|
C]--5---5---5-5---5-7---7---7-7---7-|--9---9---9-9---9-9---9---9-9---9--|
F]----------------------------------|-----------------------------------|
C]--5---5---5-5---5-7---7---7-7---7-|--9---9---9-9---9-9---9---9-9---9--|

    F(no5)          C(no5)             Em(no5)         F(no5)
    1   2   3 a 4 + 1   2   3 a 4 +    1   2   3 a 4 + 1   2   3 a 4 +
c]----------------------------------|-----------------------------------|
G]----------------------------------|-----------------------------------|
E]--5---5---5-5---5-0---0---0-0---0-|--3---3---3-3---3-5---5---5-5---5--|
C]--5---5---5-5---5-0---0---0-0---0-|--4---4---4-4---4-5---5---5-5---5--|
F]----------------------------------|-----------------------------------|
C]--5---5---5-5---5-0---0---0-0---0-|--4---4---4-4---4-5---5---5-5---5--|

    F(no5)          G(no5)             Am              Asus4
    1   2   3 a 4 + 1   2   3 a 4 +    1   2   3 a 4 + 1   2   3 a 4 +
c]----------------------------------|-----------------------------------|
G]----------------------------------|-----------------------------------|
E]--5---5---5-5---5-7---7---7-7---7-|--8---8---8-8---8-10--10--1010--10-|
C]--5---5---5-5---5-7---7---7-7---7-|--9---9---9-9---9-9---9---9-9---9--|
F]----------------------------------|-----------------------------------|
C]--5---5---5-5---5-7---7---7-7---7-|--9---9---9-9---9-9---9---9-9---9--|

(C*)            F(no5)             C(no5)      Em(no5)                 F(no5)
  No, you can't die from a broken heart, but breathing in and out gets hard
            F(no5)            G(no5)              Am        Asus4
  Is there nothing that I can say to change your mind?
               F(no5)             C(no5)        Em(no5)               F(no5)
  Where do you go if you fall too far? There's nothing in between the stars
            F(no5)            G(no5)              Am        Asus4
  Is there nothing that I can say to change your mind?
                 (C)
  To change your mind


 VERSE 2:
C
  Can't find what you can't see, creeps up behind me
                                 F9maj7
  Breaking and entering under my skin
             C
  Under my skin
C
  There's nowhere left to hide, not even my pride's left 
                                 F9maj7
  You can't deny the state that I'm in
                     C
  The state that I'm in



 REFRAIN 2:
    Am(no5) G(no5)       C(no5)     F
  I know in time it will fade not grow
        Am(no5)    G(no5) C*
  But I don't want it to go



 CHORUS 2:
(C*)            F(no5)             C(no5)      Em(no5)                 F(no5)
  No, you can't die from a broken heart, but breathing in and out gets hard
            F(no5)            G(no5)              Am        Asus4
  Is there nothing that I can say to change your mind?
               F(no5)             C(no5)        Em(no5)               F(no5)
  Where do you go if you fall too far? There's nothing in between the stars
            F(no5)            G(no5)              Am        Asus4
  Is there nothing that I can say to change your mind?
                 (Fadd9)
  To change your mind



 BRIDGE:
    Fadd9           C                  Emaug5          Fadd9
    1   2   3 a 4 + 1   2   3 a 4 +    1   2   3 a 4 + 1   2   3 a 4 +
c]--0---0---0-0---0-0---0---0-0---0-|--0---0---0-0---0-0---0---0-0---0--|
G]--0---0---0-0---0-0---0---0-0---0-|--0---0---0-0---0-0---0---0-0---0--|
E]--5---5---5-5---5-0---0---0-0---0-|--3---3---3-3---3-5---5---5-5---5--|
C]--5---5---5-5---5-0---0---0-0---0-|--4---4---4-4---4-5---5---5-5---5--|
F]--x---x---x-x---x-2---2---2-2---2-|--x---x---x-x---x-x---x---x-x---x--|
C]--5---5---5-5---5-0---0---0-0---0-|--4---4---4-4---4-5---5---5-5---5--|

    Fadd9           Gadd4              Emaug5          Fadd9
    1   2   3 a 4 + 1   2   3 a 4 +    1   2   3 a 4 + 1   2   3 a 4 +
c]--0---0---0-0---0-0---0---0-0---0-|--0---0---0-0---0-0---0---0-0---0--|
G]--0---0---0-0---0-0---0---0-0---0-|--0---0---0-0---0-0---0---0-0---0--|
E]--5---5---5-5---5-7---7---7-7---7-|--3---3---3-3---3-5---5---5-5---5--|
C]--5---5---5-5---5-7---7---7-7---7-|--4---4---4-4---4-5---5---5-5---5--|
F]--x---x---x-x---x-x---x---x-x---x-|--x---x---x-x---x-x---x---x-x---x--|
C]--5---5---5-5---5-7---7---7-7---7-|--4---4---4-4---4-5---5---5-5---5--|

    Fadd9           Gadd4              Am7
    1   2   3 a 4 + 1   2   3 a 4 +    1   2   3 a 4 + 1   2   3 a 4 +
c]--0---0---0-0---0-0---0---0-0---0-|--0---0---0-0---0-0---0---0-0---0--|
G]--0---0---0-0---0-0---0---0-0---0-|--0---0---0-0---0-0---0---0-0---0--|
E]--5---5---5-5---5-7---7---7-7---7-|--8---8---8-8---8-8---8---8-8---8--|
C]--5---5---5-5---5-7---7---7-7---7-|--9---9---9-9---9-9---9---9-9---9--|
F]--x---x---x-x---x-x---x---x-x---x-|--x---x---x-x---x-x---x---x-x---x--|
C]--5---5---5-5---5-7---7---7-7---7-|--9---9---9-9---9-9---9---9-9---9--|



 REFRAIN 3:
    C                                  C
    1   2   3 a 4 + 1   2   3 a 4 +    1   2   3 a 4 +
c]----------------------------------|-----------------------------------|
G]----------------------------------|-----------------------------------|
E]--3---3---3-3---3-3---3---3-3---3-|--3---3---3-3---3------------------|
C]--4---4---4-4---4-4---4---4-4---4-|--4---4---4-4---4------------------|
F]----------------------------------|-----------------------------------|
C]--0---0---0-0---0-0---0---0-0---0-|--0---0---0-0---0------------------|

  C
  I know in time it will fade not grow
      C
  But I don't want it to go



 CHORUS 3:
    F(no5)          C(no5)             Em(no5)         F(no5)
    1   2   3 a 4 + 1   2   3 a 4 +    1   2   3 a 4 + 1   2   3 a 4 +
c]----------------------------------|-----------------------------------|
G]----------------------------------|-----------------------------------|
E]--5---5---5-5---5-0---0---0-0---0-|--3---3---3-3---3-5---5---5-5---5--|
C]--5---5---5-5---5-0---0---0-0---0-|--4---4---4-4---4-5---5---5-5---5--|
F]----------------------------------|-----------------------------------|
C]--5---5---5-5---5-0---0---0-0---0-|--4---4---4-4---4-5---5---5-5---5--|

    F(no5)          G(no5)             Am
    1   2   3 a 4 + 1   2   3 a 4 +    1   2   3 a 4 + 1
c]----------------------------------|-----------------------------------|
G]----------------------------------|-----------------------------------|
E]--5---5---5-5---5-7---7---7-7---7-|--8---8---8-8---8-8----------------|
C]--5---5---5-5---5-7---7---7-7---7-|--9---9---9-9---9-9----------------|
F]----------------------------------|-----------------------------------|
C]--5---5---5-5---5-7---7---7-7---7-|--9---9---9-9---9-9----------------|

    Fadd9           C                  Emaug5          Fadd9
    1   2   3 a 4 + 1   2   3 a 4 +    1   2   3 a 4 + 1   2   3 a 4 +
c]--0---0---0-0---0-0---0---0-0---0-|--0---0---0-0---0-0---0---0-0---0--|
G]--0---0---0-0---0-0---0---0-0---0-|--0---0---0-0---0-0---0---0-0---0--|
E]--5---5---5-5---5-0---0---0-0---0-|--3---3---3-3---3-5---5---5-5---5--|
C]--5---5---5-5---5-0---0---0-0---0-|--4---4---4-4---4-5---5---5-5---5--|
F]--x---x---x-x---x-2---2---2-2---2-|--x---x---x-x---x-x---x---x-x---x--|
C]--5---5---5-5---5-0---0---0-0---0-|--4---4---4-4---4-5---5---5-5---5--|

    Fadd9           Gadd4              Am7             Am11
    1   2   3 a 4 + 1   2   3 a 4 +    1   2   3 a 4 + 1   2   3 a 4 +
c]--0---0---0-0---0-0---0---0-0---0-|--0---0---0-0---0-0---0---0-0---0--|
G]--0---0---0-0---0-0---0---0-0---0-|--0---0---0-0---0-0---0---0-0---0--|
E]--5---5---5-5---5-7---7---7-7---7-|--8---8---8-8---8-10--10--1010--10-|
C]--5---5---5-5---5-7---7---7-7---7-|--9---9---9-9---9-9---9---9-9---9--|
F]--x---x---x-x---x-x---x---x-x---x-|--x---x---x-x---x-x---x---x-x---x--|
C]--5---5---5-5---5-7---7---7-7---7-|--9---9---9-9---9-9---9---9-9---9--|

                F(no5)             C(no5)      Em(no5)                 F(no5)
  No, you can't die from a broken heart, but breathing in and out gets hard
            F(no5)            G(no5)              Am
  Is there nothing that I can say to change your mind?
               Fadd9               C            Emaug5                Fadd9
  Where do you go if you fall too far? There's nothing in between the stars
            Fadd9             Gadd4             Am        Am11
  Is there nothing that I can say to change your mind?
                 (C)
  To change your mind



 OUTRO:
    C                                  C
    1   2   3 a 4 + 1   2   3 a 4 +    1   2   3 a 4 + 1
c]----------------------------------|-----------------------------------|
G]----------------------------------|-----------------------------------|
E]--3---3---3-3---3-3---3---3-3---3-|--3---3---3-3---3-3----------------|
C]--4---4---4-4---4-4---4---4-4---4-|--4---4---4-4---4-4----------------|
F]----------------------------------|-----------------------------------|
C]--0---0---0-0---0-0---0---0-0---0-|--0---0---0-0---0-0----------------|




xxxxxxxxxxxxxxxxxxxxxxxxxxxxxxxxxxxxxxxxxxxxxxxxxxxxxxxxxxxxxxxxxxxxxxxxxxxxxxxxxxxxxxxxxxxxxxxxxxxx

xxxxxxxxxxxxxxxxxxxxxxxxxxxxxxxxxxxxxxxxxxxxxxxxxxxxxxxxxxxxxxxxxxxxxxxxxxxxxxxxxxxxxxxxxxxxxxxxxxxx
Suggest correction
Give kudos to tab author, rate the tab!
1 2 3 4 5
comments
print report bad tab
2 comments total.
0 reply
mrjordanreece87 36 Sep 23, 2014 09:54 PM

thank you very much!!! been waiting for this :) tried learning it from ear just couldn't get it lol

guest
You may want to rate the tab now too:
select rating
Wanna post a correction for this tab? Suggest correction