Oops, an error
Loading. Please wait.

It Must Be Love Tab

1,389 views 1 this week
no commentswrite comment
1 2 3 4 5
3 more votes to show rating
add to favorites
launch autoscroll
font size
0
reset
how to read this tab
guitar tuner
Autoscroll
slow
fast
+/-
esc
set tempo
stop
Help us to improve Ultimate-Guitar.com Take our survey!
×
Author
-------------------------------------------------------------------------------
                             It Must Be Love - Newton Faulkner
-------------------------------------------------------------------------------
Tabbed by: Ghefly/Milo
E-mail:

Tuning: Standard

Verse 1

     
e|--5-5-5-5--7-7-7-7----|
B|--5-5-5-5-------------|
G|-----------4-4-4-4----|
D|----------------------| x2
A|----------------------|
E|---5-5-5-3--0-0-0-3---|
   

e|----------------------|      |-----------5--|
B|--3-3-3-------5-5-5---|      |-3-3-3-3-4-5--|
G|--4-4-4-------4-4-4---|      |-4-4-4-4-5----|
D|--------0-2-0---------|  x2  |--------------|
A|----------------------|      |--------------|
E|---3-3---------3-3----|      |-3-3-3-3-4-5--|


Link

e|-------------------|
B|-5555-7------------|
G|-5555-7------------|
D|-5555-7------------|
A|-3555-5------------|
E|-------------------|

Pre-chorus

e|---------------------1---1-----------|
B|---8---8----2---2----3---3---0---0---|
G|---9---9----2---2----2---2---1---1---|
D|---9---9----1---1--0---x0----2---2---|
A|-7---x7---0---x0---------------------|
E|---------------------------0---x0----|

e|---------------------------------------------|
B|---2---2---2---2----2---2--------------0-0---|
G|---2---2---2---2----2---2-----0-0-0-0--2-4---|
D|---1---1---1---1----1---1-----0-2-4-5--------|
A|-0---x0--------------------------------------|
E|---------3---x3---2---x2---------------------|

Chorus

e|-------------------------|     |--------------|
B|-----------3-3---5---5/7-|     |--------------|
G|---4---4---4-4---5---5/7-|     |-5-5--7-7--9--|
D|---5---4-----x-----------| x2  |-x-x--x-x--x--|
A|---5---5-2---2----x3~-/5-|     |-3-3--5-5--7--|
E|-3---x3------------------|     |--------------|

Verse 2

e|----------------------------------3----------------3----------|     e|---------|
B|------------------------------------5---3------------5---3-4--|     B|-5555-7--|
G|--------------------------------------4----------------4------|     G|-5555-7--|
D|-------545-54--------545--------------------------------------| x2  D|-5555-7--|
A|--------------------5-----------------------------------------|     A|-3555-5--|
E|-55885--------55885------333x333-----------333x333------------|     E|---------|

Back to pre-chorus then chorus.

Bridge

e|------------------------------------------------------------------------------------|
B|-------------------------------------------------------8----------------------------|
G|---------------------------9--------4-0------------4-7---9--------------------4-7---|
D|----------------------7-10--------------2--------5---------10--5------------5-------|
A|-----7---2----------7--------2---------------2-5-----------------7------2-5---------|
E|-5-8-------3-0--5-8------------3-0---------3-----------------------8--3-------------|

e|-------------------|
B|-5555-7------------|
G|-5555-7------------|
D|-5555-7------------|
A|-3555-5------------|
E|-------------------|

Slight pre-chorus variation.

e|---------------------1---1-----------|
B|---8---8----2---2----3---3-----------|
G|---9---9----2---2----2---2--1--2--4--|
D|---9---9----1---1--0---x0---2--2--2--|
A|-7---x7---0---x0------------2--2--2--|
E|-----------------------------0--0----|

Then the rest of the chorus is the same, but with added typical Newton percussive bits.





************************************

| /   slide up
| \   slide down
| h   hammer-on
| p   pull-off
| ~   vibrato
| +   harmonic
| x   Mute note
| b   Bend
| pb  Pre-bend
| br  Bend release
| pbr Pre-bend release
| brb Bend release bend

************************************
Suggest correction
Give kudos to tab author, rate the tab!
1 2 3 4 5
comments
print report bad tab
guest
You may want to rate the tab now too:
select rating
Wanna post a correction for this tab? Suggest correction