Oops, an error
Loading. Please wait.

Lipstick Jungle Tab

version 1
version 1

Whole song

Interactive

18,574 views 6 this week
5 commentsread comments
1 2 3 4 5
x 3
add to favorites
launch autoscroll
font size
0
reset
how to read this tab
guitar tuner
Autoscroll
slow
fast
+/-
esc
set tempo
stop
Help us to improve Ultimate-Guitar.com Take our survey!
×
This is off Newton Faulkner's new album Rebuilt By Humans, and is in my opinion the best 
on here :)

N.B this is my first tab, so go easy alright? :P

Tuning: Standard

Intro/Verse (played fast)

e|---------------------------------------------------|------------------------|
B|--------------------8------------7-----------5-----|--5---------------------|
G|-------4----------9------------7-----------5-------|--5---------------------|
D|-----5----------9------------7-----------5---------|--5---------------------|
A|---5----------7------------5-----------3-----------|--3---------------------|
E|-3-------------------------------------------------|------------------------|
                                                     ^ played every other bar :)


Pre - Chorus (i've been thinking...)

e|-----------------------------------------------------------------------------|
B|------------------------------5------------7---------------------------------|
G|-------4----------7---------5------------7-----------------------------------|
D|-----5----------9---------5------------7-------------------------------------|
A|---5----------9---------3------------5---------------------------------------|
E|-3----------7----------------------------------------------------------------|

after that  it goes:

e|---------------------------------------------------------------------------|
B|--------------------10--8--------8-7---------5-----------------------------|
G|-------4----------9------------7-----------5-------------------------------|
D|-----5----------9------------7-----------5---------------------------------|
A|---5----------7------------5-----------3-----------------------------------|
E|-3-------------------------------------------------------------------------|

Chorus - this may be a bit off but:

The basic chords used are the barre chords :

G, B, C, D

and I'm working on the Jazzy bit at the moment, so that will be up soon :)

Cheers guys and comment/amend as you wish :)

Happy strumming! :)
xx
Suggest correction
Give kudos to tab author, rate the tab!
1 2 3 4 5
comments
print report bad tab
5 comments total. Showing first comments.
0 reply
Oli-The-Strange 144 Oct 17, 2009 05:10 AM

You must have posted yours SECONDS before me xD

0 reply
cormac111 95 Feb 26, 2010 05:03 PM

really good but you're missing the part in intro and verse where he plays open notes before the picking like this:

e|---------------------------------------------------|------------------------|
B|--------------------8------------7-----------5-----|--5---------------------|
G|-------4----------9------------7-----------5-------|--5---------------------|
D|-----5----------9------------7-----------5---------|--5---------------------|
A|---5--------0-7----------0-5---------0-3-----------|--3---------------------|
E|-3-------------------------------------------------|------------------------|


he does that for the whole song
oh, and the chorus is G Bm C D

0 reply
cormac111 95 Feb 26, 2010 05:03 PM

it does it on the G aswell apart from the very start

guest
You may want to rate the tab now too:
select rating
Wanna post a correction for this tab? Suggest correction