Oops, an error
Loading. Please wait.

Lipstick Jungle Tab

version 3
version 3

Whole song

Interactive

5,030 views 12 this week
no commentswrite comment
1 2 3 4 5
excellent!
x 7
add to favorites
launch autoscroll
font size
0
reset
how to read this tab
guitar tuner
Autoscroll
slow
fast
+/-
esc
set tempo
stop
Help us to improve Ultimate-Guitar.com Take our survey!
×
Author
Difficulty
intermediate
Lipstick Jungle                                                                          
                       Transcribed by: Thomas Keats

Newton Faulkner
Rebuilt by Humans


Intro: (G Em D C)
e|-------x--------x--------x--------x--------x--------x--------x--------x--|
B|-------x------8-x------7-x------5-x--------x------8-x------7-x------5-x--|
G|-----4-x-----9--x-----7--x-----5--x------4-x-----9--x-----7--x-----5--x--|
D|----5--x----9---x----7---x----5---x-----5--x----9---x----7---x----5---x--|
A|---5---x-0-7----x-0-5----x-0-3----x----5---x-0-7----x-0-5----x-0-3----x--|
E|--3----x--------x--------x--------x-0-3----x--------x--------x--------x--|

Verse: X2 (G Em D C)
e|---------x--------x--------x--------x--------x--------x--------x---------|
B|---------x------8-x------7-x------5-x--------x------8-x------7-x-5--5----|
G|-------4-x-----9--x-----7--x-----5--x------4-x-----9--x-----7--x-5--5----|
D|------5--x----9---x----7---x----5---x-----5--x----9---x----7---x-5--5----|
A|-----5---x-0-7----x-0-5----x-0-3----x----5---x-0-7----x-0-5----x-3--3----|
E|--0-3----x--------x--------x--------x-0-3----x--------x--------x---------|

Pre Chorus: X2 (G Bm C D)
e|-------x--------x--------x--------x--------x--------x--------x--------x--|
B|-------x------3-x------5-x------7-x--------x------8-x------3-x------7-x--|
G|-----4-x-----4--x-----5--x-----7--x------4-x-----9--x-----4--x-----7--x--|
D|----5--x----4---x----5---x----7---x-----5--x----9---x----4---x----7---x--|
A|---5---x-0-2----x-0-3----x-0-5----x----5---x-0-7----x-0-2----x-0-5----x--|
E|0-3----x--------x--------x--------x-0-3----x--------x--------x--------x--|

Bridge: X2 (G Em D C)
e|---------x---------------------------x--|
B|---------x------10-8------8-7------5-x--|
G|-------4-x-----9---------7--------5--x--|
D|------5--x----9---------7--------5---x--|
A|-----5---x-0-7-------0-5------0-3----x--|
E|--0-3----x---------------------------x--|

Verse: X2 (G Em D C)
e|---------x--------x--------x--------x--------x--------x--------x---------|
B|---------x------8-x------7-x------5-x--------x------8-x------7-x-5--5----|
G|-------4-x-----9--x-----7--x-----5--x------4-x-----9--x-----7--x-5--5----|
D|------5--x----9---x----7---x----5---x-----5--x----9---x----7---x-5--5----|
A|-----5---x-0-7----x-0-5----x-0-3----x----5---x-0-7----x-0-5----x-3--3----|
E|--0-3----x--------x--------x--------x-0-3----x--------x--------x---------|

Pre Chorus: X2 (G Bm C D)
e|-------x--------x--------x--------x--------x--------x--------x--------x--|
B|-------x------3-x------5-x------7-x--------x------8-x------3-x------7-x--|
G|-----4-x-----4--x-----5--x-----7--x------4-x-----9--x-----4--x-----7--x--|
D|----5--x----4---x----5---x----7---x-----5--x----9---x----4---x----7---x--|
A|---5---x-0-2----x-0-3----x-0-5----x----5---x-0-7----x-0-2----x-0-5----x--|
E|0-3----x--------x--------x--------x-0-3----x--------x--------x--------x--|

Chorus: X3 (G B C Cm)
e|--3-3-x---2-2-x---3-3-x---3--3--------|
B|--3-3-x---4-4-x---5-5-x---4--4--------|
G|--4-4-x---4-4-x---5-5-x---5--5--------|
D|--5-5-x---4-4-x---5-5-x---5--5--------|
A|--5-5-x-0-2-2-x-0-3-3-x-0-3--3--------|
E|--3-3-x-------x-------x---------------|

e|--3-3-x---2-2-x---3-3-x-3-------------|
B|--3-3-x---4-4-x---5-5-x-4-------------|
G|--4-4-x---4-4-x---5-5-x-5-------------|
D|--5-5-x---4-4-x---5-5-x-5-------------|
A|--5-5-x-0-2-2-x-0-3-3-x-3-------------|
E|--3-3-x-------x-------x---------------|

Bridge: X2 (G Em D C)
e|---------x---------------------------x--|
B|---------x------10-8------8-7------5-x--|
G|-------4-x-----9---------7--------5--x--|
D|------5--x----9---------7--------5---x--|
A|-----5---x-0-7-------0-5------0-3----x--|
E|--0-3----x---------------------------x--|

Verse: X2 (G Em D C)
e|---------x--------x--------x--------x--------x--------x--------x---------|
B|---------x------8-x------7-x------5-x--------x------8-x------7-x-5--5----|
G|-------4-x-----9--x-----7--x-----5--x------4-x-----9--x-----7--x-5--5----|
D|------5--x----9---x----7---x----5---x-----5--x----9---x----7---x-5--5----|
A|-----5---x-0-7----x-0-5----x-0-3----x----5---x-0-7----x-0-5----x-3--3----|
E|--0-3----x--------x--------x--------x-0-3----x--------x--------x---------|

Chorus: X3 (G B C Cm)
e|--3-3-x---2-2-x---3-3-x---3--3--------|
B|--3-3-x---4-4-x---5-5-x---4--4--------|
G|--4-4-x---4-4-x---5-5-x---5--5--------|
D|--5-5-x---4-4-x---5-5-x---5--5--------|
A|--5-5-x-0-2-2-x-0-3-3-x-0-3--3--------|
E|--3-3-x-------x-------x---------------|

e|--3-3-x---2-2-x---3-3-x-3-------------|
B|--3-3-x---4-4-x---5-5-x-4-------------|
G|--4-4-x---4-4-x---5-5-x-5-------------|
D|--5-5-x---4-4-x---5-5-x-5-------------|
A|--5-5-x-0-2-2-x-0-3-3-x-3-------------|
E|--3-3-x-------x-------x---------------|

Break Down: X4 (Am G)
e|-------5-------5-------5------5-x-------3-------3-------3------3-x----|
B|-------5-------5-------5------5-x-------3-------3-------3------3-x----|
G|-------5-------5-------5------5-x-------4-------4-------4------4-x----|
D|-------7-------7-------7------7-x-------5-------5-------5------5-x----|
A|-------7-------7-------7------7-x-------5-------5-------5------5-x----|
E|--4/5--5--4/5--5--4/5--5--4/5-5-x--2/3--3--2/3--3--2/3--3--2/3-3-x----|

Bridge: X2 (G Em D C)
e|---------x---------------------------x--|
B|---------x------10-8------8-7------5-x--|
G|-------4-x-----9---------7--------5--x--|
D|------5--x----9---------7--------5---x--|
A|-----5---x-0-7-------0-5------0-3----x--|
E|--0-3----x---------------------------x--|

Chorus: X7 (G B C Cm)
e|--3-3-x---2-2-x---3-3-x---3--3--------|
B|--3-3-x---4-4-x---5-5-x---4--4--------|
G|--4-4-x---4-4-x---5-5-x---5--5--------|
D|--5-5-x---4-4-x---5-5-x---5--5--------|
A|--5-5-x-0-2-2-x-0-3-3-x-0-3--3--------|
E|--3-3-x-------x-------x---------------|

e|--3-3-x---2-2-x---3-3-x-3-------------|
B|--3-3-x---4-4-x---5-5-x-4-------------|
G|--4-4-x---4-4-x---5-5-x-5-------------|
D|--5-5-x---4-4-x---5-5-x-5-------------|
A|--5-5-x-0-2-2-x-0-3-3-x-3-------------|
E|--3-3-x-------x-------x---------------|




************************************

| /   slide up
| \   slide down
| h   hammer-on
| p   pull-off
| ~   vibrato
| +   harmonic
| x   Mute note
| b   Bend
| pb  Pre-bend
| br  Bend release
| pbr Pre-bend release
| brb Bend release bend

************************************
Suggest correction
What's this?
You can suggest a correction to this tab. Community and Mods will review your correction and vote to approve or reject it.
comments
print report bad tab
guest
You may want to rate the tab now too:
select rating
Please do not post tabs as comments. Select "correction" instead!