Oops, an error
Loading. Please wait.

Lullaby tab

version 3
version 3

Whole song

Interactive

46 views 1 this week
no commentswrite comment
1 2 3 4 5
3 more votes to show rating
add to favorites
×
Save as Personal and add changes to this tab that will be seen only by you. Learn more ›
×
You can save this tab as Personal to edit and correct it or add notes. All changes will be seen only by you. Learn more »
launch autoscroll
font size
0
reset
how to read this tab
guitar tuner
edit
Autoscroll
slow
fast
+/-
esc
set tempo
stop
Author
Difficulty
A pretty simple little song, this is how I play it on guitar: (as the original is of course on piano)
I play the root notes in the outro using my thumb but it's manageable with the fingers if you prefer. 

[Intro]

e|---------------------------|---------------------------------|
B|---------2--3-----3---2----|-----------2--3-----3---2--------|
G|------2--------------------|-------2-------------------------|
D|---0-----------------------|---5-----------------------------|
A|---------------------------|---------------------------------|
E|---------------------------|---------------------------------|

e|---------------------------|------------------5--------------|
B|---------2--3-----3---2----|-----------2--3------------------|
G|------2--------------------|-------2-------------------------| x2
D|---0-----------------------|---5-----------------------------|
A|---------------------------|---------------------------------|
E|---------------------------|---------------------------------|

Close your eyes
Get some sleep
It's too late now
To change anything
But it's all right
Get some sleep
It's so dark outside
So close your eyes
And feel the...

[Outro]

e|-------------------|-------------------|-----------------5-|
B|---------2--3------|-----------2--3----|----------2--3-----|
G|------2------------|-------2-----------|-------2-----------| x2
D|-------------------|-------------------|-------------------|
A|---2---------------|----0--------------|-------------------|
E|-------------------|-------------------|---3---------------|

...world turn round
If you're not lost
I guess that makes you found.

Suggest correction
Creating personal tab
Creating personal tab
You can edit any tab online and save it as your Personal.

You can edit, replace or remove any tab part or add personal notes – all changes will be seen only by you.

Personal tabs can be accessed anytime from any device, even offline.
Learn more »
Give kudos to tab author, rate the tab!
1 2 3 4 5
comments
print report bad tab
guest
You may want to rate the tab now too:
select rating
Wanna post a correction for this tab? Suggest correction