Oops, an error
Loading. Please wait.

People Should Smile More Tab

version 2
version 2

Whole song

Interactive

9,453 views 12 this week
no commentswrite comment
1 2 3 4 5
excellent!
x 3
add to favorites
launch autoscroll
font size
0
reset
how to read this tab
guitar tuner
Tab Pro tools
  • play this tab
  • loop segment
  • change instrument
  • show fretboard
  • metronome
×
Best way to learn
"People Should Smile More"
Autoscroll
slow
fast
+/-
esc
set tempo
stop
Contributor
Difficulty
Tuning
intermediate
D G C F A D

---PEOPLE SHOULD SMILE MORE---
-------NEWTON FAULKNER--------
-----HAND BUILT BY ROBOTS-----

Tuning:  One Tone Down
	(D, G, C, F, A, D)

This is the first complete tab of this great song I have found, most people feel 
its in standard tuning,
but I've seen him live, and he played it in this tuning, 
how sad of me to notice really, anyway, its nowhere near perfect,
and Im not claiming it is but its a start I feel, so have fun

Qatwar

INTRO:
    
D|----5------------------|----------------------------|
A|----5------------------|----------------------------|
F|----6------------------|-------7-------7--7---------|
C|--------------7--7-----|----6----------7--7h9p7---7-|
G|--------------7--7h9p7-|-7--------7/9----------9----|
D|-5----x-7-7/9----------|----------------------------|

D|----5--------------------|----------------------------------|
A|----5--------------------|----------------------------------|
F|----6--------------------|-------7-----7------9-------------|
C|--------------7----x-7---|----6--------7------9---9\7-------|
G|--------------7----x-9p7-|-7-------7/9---9/11----11\9-------|
D|-5----x-7-7/9------------|-----------------------------8h9--|

VERSE I:

D||-----5-----------------|-----------------------| 
A||-----5-----------------|-----------------------| 
F||o----6-----------------|-------7-------7-----7-| 
C||o-------------7--7-----|----6----------7-----7-| 
G||--------------7--7h9p7-|-7--------7/9-----9----|
D||--5-----7-7/9----------|-----------------------|

D|----5--------------------|----------------------||
A|----5--------------------|----------------------||
F|----6--------------------|-------7-----7-----7-o||
C|--------------7----x-7---|----6--------7-----7-o||
G|--------------7----x-9p7-|-7-------7/9----9-----||
D|-5----x-7-7/9------------|----------------------||

BRIDGE I             ____1st time_____   ____2nd time__
                                       \  
D||------------------|------------------||--------------|
A||------------------|------------------||--------------|
F||o-----6-------7---|-----7-------7---o||-----7--------|
C||o-----7-----7---7-|-----9-----7---7-o||-----9--------|
G||----7---7-5-------|---9---9-5--------||---9---9--5---|
D||--5---------------|-7----------------||-7------------|

CHORUS I

D|--------------0----|--------------------|
A|-------5------5----|--------------------|
F|-------6------6----|----------------7---|
C|---5/7----6/7----7-|-6-6---6--------7---|:x1
G|------------7----7-|-7-7---7----7/9---9-|
D|-------------------|--------------------|

D|-------------0----|--------------------|
A|----=--------5----|--------------------|
F|--5/6--------6----|----------------7---|
C|------7-6/7-----7-|-6-6---6--------7---|:x3
G|----------7-----7-|-7-7---7----7/9---9-|
D|------------------|--------------------|

VERSE II

D||-----5-----------------|-----------------------| 
A||-----5-----------------|-----------------------| 
F||o----6-----------------|-------7-------7-----7-| 
C||o-------------7--7-----|----6----------7-----7-| 
G||--------------7--7h9p7-|-7--------7/9-----9----|
D||--5-----7-7/9----------|-----------------------|

                            ________1st time________   ______2nd time_______
                                                    \                       
D|----5--------------------|-------------------------||----------------------|
A|----5--------------------|-------------------------||----------------------|
F|----6--------------------|-------7-----7----------o||-------7--------------|
C|--------------7----x-7---|----6--------7h9p7----7-o||----6-----------------|
G|--------------7----x-9p7-|-7-------7/9-------9-----||-7-------7/9----------|
D|-5----x-7-7/9------------|-------------------------||----------------------|

BRIDGE II             ______1st time_____   ____2nd time______
                                          \  
D||------------------|--------------------||------------------|
A||------------------|--------------------||------------------|
F||o-----6-------7---|-----7-------6h7---o||-----7--------7---|
C||o-----7-----7---7-|-----9-----7-----7-o||-----9------7---7-|
G||----7---7-5-------|---9---9-5----------||---9---9--5-------|
D||--5---------------|-7------------------||-7----------------|

CHORUS II same a I

DOO-BEE BREAKDOWN:

D|--------4-5------|--------------------|
A|----2---2-2------|---3----2---3-5-3p2-|
F|----2------------|---2----2---2-2-2-2-|
C|----4--------4---|---0-0--0---0---0---|:x2
G|---------------4-|--------------------|
D|-2-----x---------|--------------------|

D|--------4-5-/9-\-|----------------------|------4-5-----------|
A|----2---2-2----\-|---3----2---3-5-5-3-2-|------2-2-----------|
F|----2--------9---|---2----2---2-2-------|-2-x----------------|
C|----4------------|---0-0--0-------------|---x-------------7--|
G|-----------------|----------------------|-0-x-------5/7-5-5--|
D|-2---------------|----------------------|--------------------|

CHORUS III starts with just electric piano on a offbeat rhythm but later guitar joins
           and plays the same as before. Then it exits as the vocals exit to leave keys 
	   bass and a weird drum thing
comments
We did not receive enough feedback on this tab! Please rate:
print report bad tab
1 2 3 4 5
I want to post or [tab]
guest
You may want to rate the tab now too:
select rating
Please do not post tabs as comments. Select "correction" instead!