Oops, an error
Loading. Please wait.

People Should Smile More Tab

version 3
version 3

Whole song

Interactive

4,634 views 1 this week
no commentswrite comment
1 2 3 4 5
1 last vote to show rating
add to favorites
launch autoscroll
font size
0
reset
how to read this tab
guitar tuner
Autoscroll
slow
fast
+/-
esc
set tempo
stop
Help us to improve Ultimate-Guitar.com Take our survey!
×
okayy chorus n prechorus are a bid fuzzy :S ill post the rest when im done workin it out

INTRO
e|---3-------------------------------3-----------------------||
b|---3-------------------------------3-----------------------||
g|-----------------5---5-5------0----------------5--5--7-----|| X2
d|--------5-5-5---4----5-5h7p5-----------5-5----4---5--5-----||
a|--------5-7-5--5---/7--------7---------5-7p5-5--/7--7------||
e|-3----/7--------------------------3--/7----------------6h7-||

VERSE - BASICALLY THE SAME AS THE INTRO
e|---3----------------------------3------------------------||
b|---3----------------------------3------------------------||
g|-----------------5----5--5-------------------5--5--5-----|| X3
d|--------5-5-5---4-----5--5----------5-5----4----5--5-----||
a|--------5-7-5--5---/7---------------5-7p5-5--/7----------||
e|-3----/7---------------3--------3--/7-------------3------||

PRECHORUS PART
e|-------------------------------------------||
b|---------1----------1-0---------1----------||
g|---0------0---0------------0-----0---0-----||
d|----0---2----2-2---2--------0--2----2-2--2-||
a|--2----3----0-----3-------2---3----0-----3-||
e|-3-----------------------3-----------------||

CHORUS - PREETTY MUCH NOT RIGHT BUT IM STILL WORKIN ON IT THIS IS A DODGY VERSION... BUT 
CHECKED THE OTHER TABS, THEY ONLY HAD CHORDS FOR THIS PART NO TABS :S
e|--3----3------------------------------------------------||
b|--3----3------------------------------------------------||
g|------------------------------------------------------5-||
d|----4h5--5-5p4-4-4--[[SOMETHING HERE I DIDNT GET]]----5-||
a|--------------------------------------------------------||
e|-3-------------------------------------------------2h3--||

ILL POST MORE SOON, ANYONE WHO KNOWS CHORUS PLEASE COMMENT
Suggest correction
Give kudos to tab author, rate the tab!
1 2 3 4 5
comments
print report bad tab
guest
You may want to rate the tab now too:
select rating
Wanna post a correction for this tab? Suggest correction