Oops, an error
Loading. Please wait.

Send Me On My Way Tab

version 1
version 1

Whole song

13,510 views 1 this week
2 commentsread comments
1 2 3 4 5
x 4
add to favorites
launch autoscroll
font size
0
reset
how to read this tab
guitar tuner
Autoscroll
slow
fast
+/-
esc
set tempo
stop
Help us to improve Ultimate-Guitar.com Take our survey!
×
Author
Difficulty
novice
Newton live says that he was considering covering a rusted root song instead of the more 
teardrop by massive attack, and he plays a cool little riff from it like this
just send me on my way...

Intro
e-------3--3p0--------------3--3p0------|
B-1-------------3-3----1------------3-3-|
G-----0-------------------0-------------|
D---------------------------------------|
A-3--------3-----------3-------3--------|
E---------------------------------------|

e-------3--3p0--------------3--3p0-----------|
B-1-------------3-3--1--------------3-3------|
G----2--------------------2------------------|
D-3--------3---------3---------3-------------|
A--------------------------------------------|
E--------------------------------------------|


Verse
e-------3--3p0--------------3--3p0--------------3--3p0--------------3--3p0--------|
B-1-------------3-3----1------------3-3----1------------3-3----1-----------3-3----|
G-----0-------------------0-------------------0-------------------0---------------|
D---------------------------------------------------------------------------------|
A-3--------3-----------3-------3-----------3-------3-----------3-------3----------|
E---------------------------------------------------------------------------------|

e-------3--3p0--------------3--3p0-----------|
B-1-------------3-3--1--------------3-3------|
G----2--------------------2------------------|
D-3--------3---------3---------3-------------|
A--------------------------------------------|
E--------------------------------------------|


Chorus, Am, G, F and some variations of that maybe
Suggest correction
comments
print report bad tab
2 comments total.
+3 reply
cartoonhippo 91 Feb 01, 2008 05:41 PM

this tab is correct for the original song by rusted root, but newton faulkner plays a more difficult version in the same
tuning as teardrop.

+2 reply
pilki02 131 Jul 29, 2010 11:11 AM

this is plagiarised from the rusted root tab posted, dont pass of work as your own, poor form.

guest
You may want to rate the tab now too:
select rating
Wanna post a correction for this tab? Suggest correction