Oops, an error
Loading. Please wait.

Send Me On My Way Tab

version 2
version 2

Whole song

2,690 views 1 this week
no commentswrite comment
1 2 3 4 5
2 more votes to show rating
add to favorites
launch autoscroll
font size
0
reset
how to read this tab
guitar tuner
×
Best way to learn
"Send Me On My Way"
Autoscroll
slow
fast
+/-
esc
set tempo
stop
Author
Difficulty
intermediate
Someone asked for this tabbed in teardrop tuning, he goes from this song to teardrop 
so here it is, much harder this way
Db-------6-6-------------6-6-----------|
Bb------------2-2-2-----------4-4-4----|
Gb-6--1--------------6-1---------------|
Db-------------------------------------|
Gb-6-----------------6-----------------|
Db-------------------------------------|

Db------6-6-------------6-6------------|
Bb-2--------4-4-4--2---------4-4-4--2--|
Gb---3----------------3----------------|
Db-4---------------4----------------4--|
Gb-------------------------------------|
Db-------------------------------------|

bit of teardrop thrown in


Db---------------------------------|
Bb---------------------------------|
Gb-------0--------0----------------|
Db-0-----0--------0-----0----------|
Gb-7-----5--------------7----etc---|
Db-0--------------5-----0----------|

love love is a verb, love is a doing word, fearless on my breath

enjoy
Cammies
Suggest correction
Give kudos to tab author, rate the tab!
1 2 3 4 5
comments
print report bad tab
guest
You may want to rate the tab now too:
select rating
Wanna post a correction for this tab? Suggest correction