Oops, an error
Loading. Please wait.

Uncomfortably Slow tab

version 2
version 2

Whole song

5,928 views 1 this week
1 commentread comment
1 2 3 4 5
x 3
add to favorites
×
Save as Personal and add changes to this tab that will be seen only by you. Learn more ›
×
You can save this tab as Personal to edit and correct it or add notes. All changes will be seen only by you. Learn more »
launch autoscroll
font size
0
reset
how to read this tab
guitar tuner
edit
Autoscroll
slow
fast
+/-
esc
set tempo
stop
UNCOMFORTABLY SLOW
NEWTON FAULKNER

TABBED BY MESS | ADAM COLTMAN messiah_4_ever at hotmail dot com

Standard Tuning - Capo 2nd - Tab Relative to Capo
This is the album version of the song.  Live, Newton plays this on a guitar which is 
a semitone, but sometimes uses capo 3rd.

All the parts are here, I didn't want to repeat myself so you may have to go back and 
a little... it's all fairly easy to remember though.

INTRO - listen to song for strumming and length
E||--5------7--||
B||--7------0--||
G||--0------0--||
D||--7------0--||
A||--5------x--||
E||---------8--||


     Travelling again, I know exactly where it's gonna end
E||--5--------------------------7-------------------------||
B||--7--------------------------0-------------------------||
G||--0--------------------------0-------------------------||
D||--7--------------------------0-------------------------||
A||--5--------------------------x-------------------------||
E||-----------------------------8-------------------------||

 The routine daydream starts as I get off
E||--0----------------------------------3--||
B||--0----------------3-----------------3--||
G||--0----------------0-----------------0--||
D||--2----------------0-----------------2--||
A||--2----------------x-----------------3--||
E||--0----------------3--------------------||

REPEAT FOR:
Holding up the queue because my ticket won't go through,
I know it should be simple but it's not

So don't take my photograph, coz I don't wanna know what it looks to feel...
E||--2-----------3---------------2-------------3--------------------------||
B||--3-----------3---------------3-------------3--------------------------||
G||--2-----------0---------------2-------------0--------------------------||
D||--0-----------2---------------0-------------2--------------------------||
A||--------------3-----------------------------3--------------------------||
E||-----------------------------------------------------------------------||

It feels like standing still but I know... moving uncomfortably slow
E||--1-----------------0-----------0-------0-----------------------||
B||--1-----------------0-----------1-------1-----------------------||
G||--2-----------------0-----------2-------0-----------------------||
D||--3-----------------2-----------2-------2-----------------------||
A||--3-----------------2-----------0-------3-----------------------||
E||--1-----------------0-------------------------------------------||

FOR SECOND VERSE AND CHORUS, SAME AS ABOVE

Slow down, there's infinite detail...
E||--5-------------0----------------||
B||--7-------------1----------------||
G||--7-------------2----------------||
D||--x-------------2----------------||
A||--5-------------0----------------||
E||---------------------------------||

It all becomes clearer now, it all becomes simpler now
E||--0-------------------------0----------------||
B||--1-------------------------1----------------||
G||--2-------------------------0----------------||
D||--2-------------------------2----------------||
A||--0-------------------------3----------------||
E||---------------------------------------------||

Just moving subconsciously...just moving uncomfortably slow
E||--0-------------------------0----------------||
B||--1-------------------------1----------------||
G||--2-------------------------0----------------||
D||--2-------------------------2----------------||
A||--0-------------------------3----------------||
E||---------------------------------------------||

            
            
Suggest correction
Creating personal tab
Creating personal tab
You can edit any tab online and save it as your Personal.

You can edit, replace or remove any tab part or add personal notes – all changes will be seen only by you.

Personal tabs can be accessed anytime from any device, even offline.
Learn more »
Give kudos to tab author, rate the tab!
1 2 3 4 5
comments
print report bad tab
1 comment total.
0 reply
Tom Bostock 10 Sep 30, 2007 07:37 AM

not accurate... sounds awful

guest
You may want to rate the tab now too:
select rating
Wanna post a correction for this tab? Suggest correction