Oops, an error
Loading. Please wait.

Outburst bass

183 views 1 this week
no commentswrite comment
1 2 3 4 5
3 more votes to show rating
add to favorites
×
Save as Personal and add changes to this tab that will be seen only by you. Learn more ›
×
You can save this tab as Personal to edit and correct it or add notes. All changes will be seen only by you. Learn more »
launch autoscroll
font size
0
reset
guitar tuner
edit
Autoscroll
slow
fast
+/-
esc
set tempo
stop
Author
Difficulty
Im the bass player for next in line so i should know how it goes.
You can fool around a litle bit with the A in the verse and go up to an B for one of the 
thats what i do.

bass doesnt play in the intro.


-------------------------------------------------------------------------------
			     Outburst - Next in Line
-------------------------------------------------------------------------------

Tabbed By :coleb64
e-mail:coleb64@aol.com

Tuning:normal

verse 1:

G|-----------------------------------------------------------------------------|
D|-----------------------------------------------------------------------------|
A|-----------------------------------------------------------------------------|
E|-2-----------------------2-2-2-5-5-5-0-0--2-2-2-5-5-5-0-0--2-2-2-5-5-5-0-0---|

G]-----------------------------------------------------------------------------|
D|-----------------------------------------------------------------------------|
A|-----------------------------------------------------------------------------|
E|-2-2-2-5-5-5-0-0--2-2-2-5-5-5-0-0--2-2-2-5-5-5-0-0--2-2-2-5-5-5-0-0----------|


G|-----------------------------------------------------------------------------|
D|-----------------------------------------------------------------------------|
A|-----------------------------------------------------------------------------|
E|-2-2-2-5-5-5-0-0--2-2-2-5-5-5-0-0--2-2-2-5-5-5-0-0--2-2-2-5-5-5-0-0----------|

  verse vocals start-
  me and my friend got jealouse at school
  stole my hart and that aint cool
G|-----------------------------------------------------------------------------|
D|-----------------------------------------------------------------------------|
A|-----------------------------------------------------------------------------|
E|-2-2-2-5-5-5-0-0--2-2-2-5-5-5-0-0--2-2-2-5-5-5-0-0--2-2-2-5-5-5-0-0----------|

  after all its just a girl
  when i see his face i just want to hurl
G|-----------------------------------------------------------------------------|
D|-----------------------------------------------------------------------------|
A|-----------------------------------------------------------------------------|
E|-2-2-2-5-5-5-0-0--2-2-2-5-5-5-0-0--2-2-2-5-5-5-0-0--2-2-2-5-5-5-0-0----------|

  Chorus:
G|-----------------------------------------------------------------------------|
D|-----------------------------------------------------------------------------|
A|-----------------------------------------------------------------------------|
E|-2-2-2-2-2-2-2-2-5-5-5-5-5-5-5-5-4-4-4-4-4-4-4-4-7-7-7-7-7-9-9---------------|

x2  Outburst! Outburst!              it spread like a flame.   hey!
G|-----------------------------------------------------------------------------|
D|-----------------------------------------------------------------------------|
A|-----------------------------------------------------------------------------|
E|-2-2-2-2-2-2-2-2-5-5-5-5-5-5-5-5-4-4-4-4-4-4-4-4-7-7-7-7-7-7-7-7-------------|

  Outburst! Outburst!             i need someone to blame
G|-----------------------------------------------------------------------------|
D|-----------------------------------------------------------------------------|
A|-----------------------------------------------------------------------------|
E|-2-2-2-2-2-2-2-2-5-5-5-5-5-5-5-5-4-4-4-4-4-4-4-4-7-7-7-7-9-7-9---------------|

verse 2:

  bridge:
G|-----------------------------------------------------------------------------|
D|-----------------------------------------------------------------------------|
A|-----------------------------------------------------------------------------|
E|-2------2--2--------2------2--2--------2------2--2--------2------2--2--------|

G|-----------------------------------------------------------------------------|
D|-----------------------------------------------------------------------------|
A|-----------------------------------------------------------------------------|
E|-2------2--2--------2------2--2--------2------2--2--------2------2--2--------|

G|-----------------------------------------------------------------------------|
D|-----------------------------------------------------------------------------|
A|-----------------------------------------------------------------------------|
E|-2------2--2--------2------2--2--------2------2--2--------2------2--2--------|

 chorus:

  outro:
G|-----------------------------------------------------------------------------|
D|-----------------------------------------------------------------------------|
A|-----------------------------------------------------------------------------|
E|-2-2-2-5-5-5-0-0--2-2-2-5-5-5-0-0--2~----------------------------------------|


                          verse 2 lyrics:
| /  slide up                    i ust couldnt take the pain anymore
| \  slide down                  had to shut my miserable door
| h  hammer-on                   class let out it was the right day
| p  pull-off                    im gunna fight im gunna say hey!!
| ~  vibrato
| +  harmonic
| x  Mute note
Suggest correction
Creating personal tab
Creating personal tab
You can edit any tab online and save it as your Personal.

You can edit, replace or remove any tab part or add personal notes – all changes will be seen only by you.

Personal tabs can be accessed anytime from any device, even offline.
Learn more »
Give kudos to tab author, rate the tab!
1 2 3 4 5
comments
print report bad tab
guest
You may want to rate the tab now too:
select rating
Wanna post a correction for this tab? Suggest correction