Oops, an error
Loading. Please wait.

Tinh Don Coi Tab

772 views 1 this week
1 commentread comment
1 2 3 4 5
please rate
add to favorites
launch autoscroll
font size
0
reset
how to read this tab
guitar tuner
Tab Pro tools
  • play this tab
  • loop segment
  • change instrument
  • show fretboard
  • metronome
×
Best way to learn
"Tinh Don Coi"
Autoscroll
slow
fast
+/-
esc
set tempo
stop
Contributor
"Tinh Don Coi" (lead parts)
Nguyen Phi Hung version
Tabbed by: Thang Vu

This song is so fun to play lead for. Feel free to e-mail me for any
corrections/comments! 
(shadowboxer@hotmail.com)

*/ = slide up
 \ = slide down
 h = hammer on
 p = pull-off 
 V = Vibrato (whammy bar, I think)

>>>Intro<<<
e----------------------------------------------------------------------------|
b--7-10-10/12---10-12-10-6h7---5-7-5-2h3---*2-3-2-0---(2nd-time:-*2-3-14-15)-|
g----------------------------------------------------------------------------|
D----------------------------------------------------------------------------|
A----------------------------------------------------------------------------|
E----------------------------------------------------------------------------|


>>>before chorus<<<
e----------------------------------------------------------|
b---/7---7-5-7-8-10---8-7-8-10-12---14--15--17--19~--------|
g----------------------------------------------------------|
D----------------------------------------------------------|
A----------------------------------------------------------|
E----------------------------------------------------------|


>>>during chorus<<<
(after "...hoi linh hon tha huong."
e-------------------------------------------------------|
b-------------------------------------------------------|
g---14/16\11-11---6--6--6---6--4--6---6/7--6--4---------|
D-------------------------------------------------------|
A-------------------------------------------------------|
E-------------------------------------------------------|


>>>after the end of chorus<<<
e-----------------------------------------------------------------------------|
b---7-10-10/12---10-12-10-6/7---5-7-5-2h3---*2-3-2-0---(2nd-time:-*2-3-14-15)-|
g-----------------------------------------------------------------------------|
D-----------------------------------------------------------------------------|
A-----------------------------------------------------------------------------|
E-----------------------------------------------------------------------------|


****************

>>>before chorus<<< 
e----------------------------------------------------------
b---/7---7-5-7-8-10---8-7-8-10-12---14--15--17--19~--19~---
g----------------------------------------------------------
D----------------------------------------------------------
A----------------------------------------------------------
E----------------------------------------------------------


...continues on with the chorus.
(after " Tim trong nhan the de nam lay mot...")
----------------------------------------------------------
---19p0-17---15-14-12---10--12---12---10h12-10---8--7--0--
----------------------------------------------------------
----------------------------------------------------------
----------------------------------------------------------
----------------------------------------------------------

-------------------------------------------------------------------------|
---2h3-2h3-2h3-5---7---5--8--7---12-14-15---14-15-17---17---15-14-10-12--|
-------------------------------------------------------------------------|
-------------------------------------------------------------------------|
-------------------------------------------------------------------------|
-------------------------------------------------------------------------|


>>>after chorus--> MAIN SOLO<<<

e----10---5/7---7--7--7--7---7p5------------------------------------
b--7----7------------------------8----------------------------------
g------------------------------------7-----------------12-----------
D--------------------------------------7-5-------12-11----12-11~----
A--------------------------------------------7-9--------------------
E-------------------------------------------------------------------

----------------------------------------------------------
----------------------------15-15-15-15-15-17-17h19~------
-------------/16\11-11--/16-------------------------------
--11-12-14------------------------------------------------
----------------------------------------------------------
----------------------------------------------------------

(really fast)
-----------------------------------------------------------
--19-17-15-17-19-17-20-17-15-17-19-17-20b~-(1 whole step)--
-----------------------------------------------------------
-----------------------------------------------------------
-----------------------------------------------------------
-----------------------------------------------------------

...continues on with the Chorus:

-----------------------------------------------------------
--12--13---11---9-8-1---13---/15-15---15-16--18-20~--------
-----------------------------------------------------------
-----------------------------------------------------------
-----------------------------------------------------------
-----------------------------------------------------------

------------------------------------------------------------------------|
--18---16---15-13--11-8---9---11---9--11--13---15-16---15---16p15-13---8|
------------------------------------------------------------------------|
------------------------------------------------------------------------|
------------------------------------------------------------------------|
------------------------------------------------------------------------|

...Chorus ends
(after "...oi tinh ca le loi") goes back to the main riff:

e-----------------------------------------------------
b--7-10-10/12---10-12-10-6h7---5-7-5-2h3---2-3-2-0----
g-----------------------------------------------------
D-----------------------------------------------------
A-----------------------------------------------------
E-----------------------------------------------------

------------------------------------------------------
---7-10-10/12---10-12-10-6h7---5-7-5-2h3--------------
------------------------------------------------------
------------------------------------------------------
------------------------------------------------------
------------------------------------------------------

(really fast)
-----------------------------------------------------------------|
--3h5-7-8-7-5-7-8-5-7-10h8-7-8-10/13-13~---15-16---18--16-15-13v-|
-----------------------------------------------------------------|
-----------------------------------------------------------------|
-----------------------------------------------------------------|
-----------------------------------------------------------------|

*/ = slide up
 \ = slide down
 h = hammer on
 p = pull-off 
 V = Vibrato (use whammy bar)
++++++++++++++++++++++++++++++++++++++++++++++++++++++++++++++++++++++
comments
We did not receive enough feedback on this tab! Please rate:
print report bad tab
1 2 3 4 5
1 comment total.
0 reply
ThangVu wrote on February 4 2003, 12:00 am

I just want to fix the email address shown on there. It is actually shadowboxer4@hotmail.com.

I want to post or [tab]
guest
You may want to rate the tab now too:
select rating
Please do not post tabs as comments. Select "correction" instead!