Oops, an error
Loading. Please wait.

Limbo tab

27 views 1 this week
no commentswrite comment
1 2 3 4 5
3 more votes to show rating
add to favorites
×
Save as Personal and add changes to this tab that will be seen only by you. Learn more ›
×
You can save this tab as Personal to edit and correct it or add notes. All changes will be seen only by you. Learn more »
launch autoscroll
font size
0
reset
how to read this tab
guitar tuner
edit
Autoscroll
slow
fast
+/-
esc
set tempo
stop
(La guitarra debe estar 1/2 tono mas abajo)


INTRO (primero entra el bajo, luego guitarra:)

d#|---------------------------------
A#|---------------------------------
F#|---------------------------------
C#|---------------------------------
G#|----------------------------2-2--
D#|0-0-1-1-0-0-3-3-0-0-1-1-0-0------

d#|---------------------------------
A#|---------------------------------
F#|---------------------------------
C#|---------------------------------  (todo muy rapido[x3])
G#|---------------------------------
D#|0-0-1-1-0-0-3-3-1/0/1/0/1/0------


VERSO:

D#|-1-0-1-0-1-0-1-0-1-0-1-0-1-0-1-0-1-0 (PALM MUTE varias veces)

luego:

(8)y no entiendes casi nada (8)
C#|---------------------- (escucha la cancion para
G#|-4-4-4-4-4-3-3-3-3----  que puedas distinguir el
D#|-2-2-2-2-2-1-1-1-1----  cambio)


otra ves:
D#|-1-0-1-0-1-0-1-0-1-0-1-0-1-0-1-0-1-0 (PALM MUTE varias veces)


(8)y no entiendes casi nada (8)
C#|---------------------- (escucha la cancion para
G#|-4-4-4-4-4-3-3-3-3----  que puedas distinguir el
D#|-2-2-2-2-2-1-1-1-1----  cambio)


PRECORO:

d#|---------------------------------|
A#|---------------------------------|
F#|---------------------------------|
C#|---------------------------------|
G#|--1---2---4---6---6---6---5--5---| (X4)
D#|-0--1---2---4---7---7---6---6----|


Coro:

D#5                F#5*
  Cada vez que te veo brillar

     E5*        F#5*
tus ojos me acompañan

F#5 G#5 D#5           F#5*
       cada vez que te veo brillar

   E5*        F#5*
cada vez que te veo brillar


INTRO

VERSO

PRECORO

CORO

luego el punteo del precoro pero limpio

CORO

-hay un pequeño intrumental en el minuto 3:30:

con los mismos acordes del coro

Y TERMINAS CON EL INTRO

gracias


        F#|-11--        F#|-9--
F#5* :  C#|-11--   E5*: C#|-9--
        G#|-9---        G#|-7--
        D#|-----        D#|----
Suggest correction
Creating personal tab
Creating personal tab
You can edit any tab online and save it as your Personal.

You can edit, replace or remove any tab part or add personal notes – all changes will be seen only by you.

Personal tabs can be accessed anytime from any device, even offline.
Learn more »
Give kudos to tab author, rate the tab!
1 2 3 4 5
comments
print report bad tab
guest
Wanna post a correction for this tab? Suggest correction