Oops, an error
Loading. Please wait.

Paredes tab

version 1
version 1

Whole song

32 views 1 this week
no commentswrite comment
1 2 3 4 5
3 more votes to show rating
add to favorites
×
Save as Personal and add changes to this tab that will be seen only by you. Learn more ›
×
You can save this tab as Personal to edit and correct it or add notes. All changes will be seen only by you. Learn more »
launch autoscroll
font size
0
reset
how to read this tab
guitar tuner
edit
Autoscroll
slow
fast
+/-
esc
set tempo
stop
   

ESTA TABLATURA ES LA VERSION ACUSTICA DE PAREDES
ESPERO QUE SE ANIMEN A SEGUIR SACANDO MAS TABS DE ESTA GRAN BANDA

Tablatura:

INTRO:
                                      
|------------0-------------------0--------------------0----------------|
|--------3------3---3--------3-----3---3----------3-----3---3----------|
|-----2----2------2---2----2---2-----2---2----2s3---2-----2---2--------|
|--0---------------------0------------------0--------------------------|
|----------------------------------------------------------------------|
|----------------------------------------------------------------------|

                
|----------0-----------------0-----------------0------------|
|-------3----3---3--------3----3---3--------3----3---3------|
|-----3--3-----3---3----2--2-----2---2----2---2----2---2----|
|---0-----------------0-----------------0-------------------|
|-----------------------------------------------------------|
|-----------------------------------------------------------|


|--------------0-------------------0-----------4----4----|
|---------3------3---3---------3-----3---3------3----3---|
|-----2s3----2-----2---2----3----3-----3---3-----2----2--|
|--0----------------------0-----------------------3----3-|
|--------------------------------------------------------|
|--------------------------------------------------------|

|------------6--5-3-5-6--5-3----|
|-------------------------------|
|-------------------------------| X 2
|-------------------------------|
|-------------------------------|
|-------------------------------|


VERSOS:

C#m             G#        C#m
Hoy busco un espacio para mi
   G#           C#m
solamente para mi
                  G#                  C#m
no me atrevo a decirte esta nueva emocion
      G#            C#m
que crece dentro de mi
                 G#                  C#m
tu maldices mi capacidad de demostrar que
          G#
puedo mas
C#m                  G#               C#m
yo maldigo tus habitos que me llevan siempre 
  G#                 C#m   G#    C#m    G#
a encerrar tu alma aqui

       

CORO:

C#m                G#
Siente el brillo del sol
                C#m              
aunque sea un momento
       G#           C#m
mirame y escucha mi voz
                    G#
derriba la pared que va
                 C#m
encerrando tu mente
         G#               C#m  G#   C#m   G#
deten tu mundo y mira atras


EN EL CORO LA OTRA GUITARRA TOCA:

|------------6--5-3-5-6--5-3----|
|-------------------------------|
|-------------------------------| LAS VECES QUE SEA NECESARIO
|-------------------------------|
|-------------------------------|
|-------------------------------|

LA SIGUIENTES ESTROFAS SON IGUALES QUE LA PRIMERA 
DESPUES VIENE EL CORO
Y LUEGO:

|-------------------------------|
|---------3---3-----3---3-------|
|-------2---2---2-2---2---------|LAS VECES QUE SEA NECESARIO
|-0-2-3-------------------------|
|-------------------------------|
|-------------------------------|

            
            
Suggest correction
Creating personal tab
Creating personal tab
You can edit any tab online and save it as your Personal.

You can edit, replace or remove any tab part or add personal notes – all changes will be seen only by you.

Personal tabs can be accessed anytime from any device, even offline.
Learn more »
Give kudos to tab author, rate the tab!
1 2 3 4 5
comments
print report bad tab
guest
Wanna post a correction for this tab? Suggest correction