Oops, an error
Loading. Please wait.

Paredes tab

version 2
version 2

Whole song

23 views 1 this week
no commentswrite comment
1 2 3 4 5
3 more votes to show rating
add to favorites
×
Save as Personal and add changes to this tab that will be seen only by you. Learn more ›
×
You can save this tab as Personal to edit and correct it or add notes. All changes will be seen only by you. Learn more »
launch autoscroll
font size
0
reset
how to read this tab
guitar tuner
edit
Autoscroll
slow
fast
+/-
esc
set tempo
stop
Es una version muy parecida al de su disco acustico, pero tienen que escucharla para saber el ritmo

Intro:

e|-----------------------------------------------------------------------------
B|-----------------------------------------------------------------------------
G|--------7-------------7----------------9-------------9-----------------------
D|-----6----6---6---6-----6---6------7-----7---7---7------7---7----------------
A|-5-5---5----5---5---5-----5------7---7-----7---7---7------7-------------------
E|------------------------------------------------------------------------------

e|---------------------------------------------------------------------------------
B|----------------------------------------------------------------------------------
G|--------11----------------11--------------------12-------------------12-----------
D|---10------10---10---10------10---10------11-------11----11----11-------11----11---
A|-9----9-------9----9----9-------9------10----10-------10----10----10-------10------
E|-----------------------------------------------------------------------------------

(1)

A                        A

e|-------------------------------------------------
B|-10-11-10-8-10-8--------10-11-10-8-10-8----------
G|-----------------10---------------------9--------
D|-------------------------------------------------
A|-------------------------------------------------
E|-------------------------------------------------

Dm             C#           Dm
Hoy busco un espacio para mí
      C#
solamente para mí
Dm                 C#                  Dm
no me atrevo a decir esta nueva emoción
        C#
que crece dentro de mí
Dm                C#                Dm
tu maldices mi capacidad de demostrar
             C#
que puedo maaaasssssss
Dm              C#                      Dm
yo maldigo tus hábitos que me llevan siempre
    C#                Dm
a encerrar tu alma aquí

Coro: se repite el punteo anterior

Dm-C#

Siente el brillo del sol
Aunque sea un momento
Mírame y escucha mi voz
Derriba la pared que va
Encerrando tu mente
Detén tu mundo y mira atrás

(2)

Dm-C#

Hoy sientes asfixia en tu interior
Y no sabes porque es
Hoy te has dado cuenta en el hueco que estas
Y con desesperación
Pretendes intentar romper esa pared
Que tu mismo hiciste
Y comienzas a escucharme ya
Y abrir esos ojos
Para ver el mundo real

Coro.


e|-------------------
B|-------------------
G|---7-----7---------
D|-----6-----6-------
A|-5-----5-----5-----
E|-------------------

Las paredes te detienen
Y busca la salida
Y sientes que no alcanzas
No puedes esperar

Y paras y no comprendes
No entiendes las paredes te detienen
Y paras y no comprendes
No entiendes las paredes te detienen

Coro.

            
            
Suggest correction
Creating personal tab
Creating personal tab
You can edit any tab online and save it as your Personal.

You can edit, replace or remove any tab part or add personal notes – all changes will be seen only by you.

Personal tabs can be accessed anytime from any device, even offline.
Learn more »
Give kudos to tab author, rate the tab!
1 2 3 4 5
comments
print report bad tab
guest
Wanna post a correction for this tab? Suggest correction