Oops, an error
Loading. Please wait.

This Town Tab

version 1
version 1

Acoustic

  • Here's the tab for Niall Horan - This Town (Live, ... Show more

Whole song

  • This is the studio version tab with a variation al... Show more
  • Version corrects the previous version's tabs, spec... Show more
  • The chords match the song if you play with it.
1,966 views 165 this week
no commentswrite comment
1 2 3 4 5
x 6
add to favorites
launch autoscroll
font size
0
reset
how to read this tab
guitar tuner
Autoscroll
slow
fast
+/-
esc
set tempo
stop
Help us to improve Ultimate-Guitar.com Take our survey!
×
Author
Difficulty
Capo
novice
2nd fret
About this tab version
Here's the tab for Niall Horan - This Town (Live, 1 Mic 1 Take) It only sounds like Niall plays it, when you don't pick the B and G string but strum it upwards with your first finger. Watch the video and you'll see what I mean. Great song, have fun. Was this info helpful? Yes No
[Intro]
  G
e|---------------------------------|
B|---3---3---3---3---3---3---3---3-|
G|---0---0---0---0---0---0---0---0-|
D|---------------------------------|
A|---------------------------------|
E|-3---3---3---3---3---3---3---3---|
   1 + 2 + 3 + 4 + 5 + 6 + 7 + 8 +


[Verse 1]
  G                                 Em7
e|---------------------------------|---------------------------------|
B|---3---3---3---3---3---3---3---3-|---3---3---3---3---3---3---3---3-|
G|---0---0---0---0---0---0---0---0-|---0---0---0---0---0---0---0---0-|
D|---------------------------------|---------------------------------|
A|---------------------------------|---------------------------------|
E|-3---3---3---3---3---3---3---3---|-0---0---0---0---0---0---0---0---|
   1 + 2 + 3 + 4 + 5 + 6 + 7 + 8 +   1 + 2 + 3 + 4 + 5 + 6 + 7 + 8 + 

  Cadd9
e|---------------------------------|
B|---3---3---3---3---3---3---3---3-|
G|---0---0---0---0---0---0---0---0-|
D|---------------------------------|
A|-3---3---3---3---3---3---3---3---|
E|---------------------------------|
   1 + 2 + 3 + 4 + 5 + 6 + 7 + 8 +

    G                                 Em7
e|---------------------------------|---------------------------------|
B|---3---3---3---3---3---3---3---3-|---3---3---3---3---3---3---3---3-|
G|---0---0---0---0---0---0---0---0-|---0---0---0---0---0---0---0---0-|
D|---------------------------------|---------------------------------|
A|---------------------------------|---------------------------------|
E|-3---3---3---3---3---3---3---3---|-0---0---0---0---0---0---0---0---|
   1 + 2 + 3 + 4 + 5 + 6 + 7 + 8 +   1 + 2 + 3 + 4 + 5 + 6 + 7 + 8 +

  Cadd9                             D
e|---------------------------------|---------------------------------|
B|---3---3---3---3---3---3---3---3-|---3---3---3---3---3---3---3---3-|
G|---0---0---0---0---0---0---0---0-|---2---2---2---2---2---2---2---2-|
D|---------------------------------|-0---0---0---0---0---0---0---0---|
A|-3---3---3---3---3---3---3---3---|---------------------------------|
E|---------------------------------|---------------------------------|
   1 + 2 + 3 + 4 + 5 + 6 + 7 + 8 +   1 + 2 + 3 + 4 + 5 + 6 + 7 + 8 + 


[Prechorus]
  Am7              D                G        D/F#    Em7            
e|---------------------------------|---------------------------------|
B|---1---1---1---1---3---3---3---3-|---3---3---3---3---3---3---3---3-|
G|---0---0---0---0---2---2---2---2-|---0---0---2---2---0---0---0---0-|
D|-----------------0---0---0---0---|---------------------------------|
A|-0---0---0---0-------------------|---------------------------------|
E|---------------------------------|-3---3---2---2---0---0---0---0---|
   1 + 2 + 3 + 4 + 5 + 6 + 7 + 8 +   1 + 2 + 3 + 4 + 5 + 6 + 7 + 8 + 

  Am7              D                G        D/F#    Em7            
e|---------------------------------|---------------------------------|
B|---1---1---1---1---3---3---3---3-|---3---3---3---3---3---3---3---3-|
G|---0---0---0---0---2---2---2---2-|---0---0---2---2---0---0---0---0-|
D|-----------------0---0---0---0---|---------------------------------|
A|-0---0---0---0-------------------|---------------------------------|
E|---------------------------------|-3---3---2---2---0---0---0---0---|
   1 + 2 + 3 + 4 + 5 + 6 + 7 + 8 +   1 + 2 + 3 + 4 + 5 + 6 + 7 + 8 + 

  Cadd9
e|---------------------------------|
B|---3---3---3---3---3---3---3---3-|
G|---0---0---0---0---0---0---0---0-|
D|---------------------------------|
A|-3---3---3---3---3---3---3---3---|
E|---------------------------------|
   1 + 2 + 3 + 4 + 5 + 6 + 7 + 8 +


[Chorus]
  Em7                               Cadd9
e|---------------------------------|---------------------------------|
B|---3---3---3---3---3---3---3---3-|---3---3---3---3---3---3---3---3-|
G|---0---0---0---0---0---0---0---0-|---0---0---0---0---0---0---0---0-|
D|---------------------------------|---------------------------------|
A|---------------------------------|-3---3---3---3---3---3---3---3---|
E|-0---0---0---0---0---0---0---0---|---------------------------------|
   1 + 2 + 3 + 4 + 5 + 6 + 7 + 8 +   1 + 2 + 3 + 4 + 5 + 6 + 7 + 8 + 

  G                                 Em7      D       G       Cadd9
e|---------------------------------|---------------------------------|
B|---3---3---3---3---3---3---3---3-|---3---3---3---3---3---3---3---3-|
G|---0---0---0---0---0---0---0---0-|---0---0---2---2---0---0---0---0-|
D|---------------------------------|---------0---0-------------------|
A|---------------------------------|-------------------------3---3---|
E|-3---3---3---3---3---3---3---3---|-0---0-----------3---3-----------|
   1 + 2 + 3 + 4 + 5 + 6 + 7 + 8 +   1 + 2 + 3 + 4 + 5 + 6 + 7 + 8 + 

  Cadd9        D   G
e|---------------------------------|-----------------|
B|---3---3---3---3---3---3---3---3-|---3---3---3---3-|
G|---0---0---0---2---0---0---0---0-|---0---0---0---0-|
D|-------------0-------------------|-----------------|
A|-3---3---3-----------------------|-----------------|
E|-----------------3---3---3---3---|-3---3---3---3---|
   1 + 2 + 3 + 4 + 5 + 6 + 7 + 8 +   1 + 2 + 3 + 4 +


[Verse 2]
    G                                 Em7
e|---------------------------------|---------------------------------|
B|---3---3---3---3---3---3---3---3-|---3---3---3---3---3---3---3---3-|
G|---0---0---0---0---0---0---0---0-|---0---0---0---0---0---0---0---0-|
D|---------------------------------|---------------------------------|
A|---------------------------------|---------------------------------|
E|-3---3---3---3---3---3---3---3---|-0---0---0---0---0---0---0---0---|
   1 + 2 + 3 + 4 + 5 + 6 + 7 + 8 +   1 + 2 + 3 + 4 + 5 + 6 + 7 + 8 +

  Cadd9                             D
e|---------------------------------|---------------------------------|
B|---3---3---3---3---3---3---3---3-|---3---3---3---3---3---3---3---3-|
G|---0---0---0---0---0---0---0---0-|---2---2---2---2---2---2---2---2-|
D|---------------------------------|-0---0---0---0---0---0---0---0---|
A|-3---3---3---3---3---3---3---3---|---------------------------------|
E|---------------------------------|---------------------------------|
   1 + 2 + 3 + 4 + 5 + 6 + 7 + 8 +   1 + 2 + 3 + 4 + 5 + 6 + 7 + 8 + 


[Prechorus]
  Am7              D                G        D/F#    Em7            
e|---------------------------------|---------------------------------|
B|---1---1---1---1---3---3---3---3-|---3---3---3---3---3---3---3---3-|
G|---0---0---0---0---2---2---2---2-|---0---0---2---2---0---0---0---0-|
D|-----------------0---0---0---0---|---------------------------------|
A|-0---0---0---0-------------------|---------------------------------|
E|---------------------------------|-3---3---2---2---0---0---0---0---|
   1 + 2 + 3 + 4 + 5 + 6 + 7 + 8 +   1 + 2 + 3 + 4 + 5 + 6 + 7 + 8 + 

  Am7              D                G        D/F#    Em7            
e|---------------------------------|---------------------------------|
B|---1---1---1---1---3---3---3---3-|---3---3---3---3---3---3---3---3-|
G|---0---0---0---0---2---2---2---2-|---0---0---2---2---0---0---0---0-|
D|-----------------0---0---0---0---|---------------------------------|
A|-0---0---0---0-------------------|---------------------------------|
E|---------------------------------|-3---3---2---2---0---0---0---0---|
   1 + 2 + 3 + 4 + 5 + 6 + 7 + 8 +   1 + 2 + 3 + 4 + 5 + 6 + 7 + 8 + 

  Cadd9
e|---------------------------------|
B|---3---3---3---3---3---3---3---3-|
G|---0---0---0---0---0---0---0---0-|
D|---------------------------------|
A|-3---3---3---3---3---3---3---3---|
E|---------------------------------|
   1 + 2 + 3 + 4 + 5 + 6 + 7 + 8 +


[Chorus]
  Em7                               Cadd9
e|---------------------------------|---------------------------------|
B|---3---3---3---3---3---3---3---3-|---3---3---3---3---3---3---3---3-|
G|---0---0---0---0---0---0---0---0-|---0---0---0---0---0---0---0---0-|
D|---------------------------------|---------------------------------|
A|---------------------------------|-3---3---3---3---3---3---3---3---|
E|-0---0---0---0---0---0---0---0---|---------------------------------|
   1 + 2 + 3 + 4 + 5 + 6 + 7 + 8 +   1 + 2 + 3 + 4 + 5 + 6 + 7 + 8 + 

  G                                 Em7      D       G       Cadd9
e|---------------------------------|---------------------------------|---------|
B|---3---3---3---3---3---3---3---3-|---3---3---3---3---3---3---3---3-|---3---3-|
G|---0---0---0---0---0---0---0---0-|---0---0---2---2---0---0---0---0-|---0---0-|
D|---------------------------------|---------0---0-------------------|---------|
A|---------------------------------|-------------------------3---3---|-3---3---|
E|-3---3---3---3---3---3---3---3---|-0---0-----------3---3-----------|---------|
   1 + 2 + 3 + 4 + 5 + 6 + 7 + 8 +   1 + 2 + 3 + 4 + 5 + 6 + 7 + 8 +   1 + 2 +

  G                                 Em7
e|---------------------------------|---------------------------------|
B|---3---3---3---3---3---3---3---3-|---3---3---3---3---3---3---3---3-|
G|---0---0---0---0---0---0---0---0-|---0---0---0---0---0---0---0---0-|
D|---------------------------------|---------------------------------|
A|---------------------------------|---------------------------------|
E|-3---3---3---3---3---3---3---3---|-0---0---0---0---0---0---0---0---|
   1 + 2 + 3 + 4 + 5 + 6 + 7 + 8 +   1 + 2 + 3 + 4 + 5 + 6 + 7 + 8 +

  Cadd9
e|---------------------------------|---------------------------------|
B|---3---3---3---3---3---3---3---3-|---3---3---3---3---3---3---3---3-|
G|---0---0---0---0---0---0---0---0-|---0---0---2---2---0---0---0---0-|
D|---------------------------------|---------0---0-------------------|
A|-3---3---3---3---3---3---3---3---|-------------------------3---3---|
E|---------------------------------|-0---0-----------3---3-----------|
   1 + 2 + 3 + 4 + 5 + 6 + 7 + 8 +   1 + 2 + 3 + 4 + 5 + 6 + 7 + 8 +

  Cadd9        D   G
e|---------------------------------|---------------------|
B|---3---3---3---3---3---3---3---3-|---3---3---3---3---3-|
G|---0---0---0---2---0---0---0---0-|---0---0---0---0---0-|
D|-------------0-------------------|---------------------|
A|-3---3---3-----------------------|---------------------|
E|-----------------3----3---3---3--|-3---3---3---3---3---|
   1 + 2 + 3 + 4 + 5 + 6 + 7 + 8 +   1 + 2 + 3 + 4 + 5 +


[Bridge]
   Em7             D/F#             G                Cadd9
e|---------------------------------|---------------------------------|-----------------|
B|---3---3---3---3---3---3---3---3-|---3---3---3---3---3---3---3---3-|---3---3---3---3-|
G|---0---0---0---0---2---2---2---2-|---0---0---0---0---0---0---0---0-|---0---0---0---0-|
D|---------------------------------|---------------------------------|-----------------|
A|---------------------------------|-----------------3---3---3---3---|-3---3---3---3---|
E|-0---0---0---0---2---2---2---2---|-3---3---3---3-------------------|-----------------|
   1 + 2 + 3 + 4 + 5 + 6 + 7 + 8 +   1 + 2 + 3 + 4 + 5 + 6 + 7 + 8 +   1 + 2 + 3 + 4 +


[Chorus]
  Em7                               Cadd9
e|---------------------------------|---------------------------------|
B|---3---3---3---3---3---3---3---3-|---3---3---3---3---3---3---3---3-|
G|---0---0---0---0---0---0---0---0-|---0---0---0---0---0---0---0---0-|
D|---------------------------------|---------------------------------|
A|---------------------------------|-3---3---3---3---3---3---3---3---|
E|-0---0---0---0---0---0---0---0---|---------------------------------|
   1 + 2 + 3 + 4 + 5 + 6 + 7 + 8 +   1 + 2 + 3 + 4 + 5 + 6 + 7 + 8 + 

  G                                 Em7      D       G       Cadd9
e|---------------------------------|---------------------------------|---------|
B|---3---3---3---3---3---3---3---3-|---3---3---3---3---3---3---3---3-|---3---3-|
G|---0---0---0---0---0---0---0---0-|---0---0---2---2---0---0---0---0-|---0---0-|
D|---------------------------------|---------0---0-------------------|---------|
A|---------------------------------|-------------------------3---3---|-3---3---|
E|-3---3---3---3---3---3---3---3---|-0---0-----------3---3-----------|---------|
   1 + 2 + 3 + 4 + 5 + 6 + 7 + 8 +   1 + 2 + 3 + 4 + 5 + 6 + 7 + 8 +   1 + 2 +

  G                                 Em7
e|---------------------------------|---------------------------------|
B|---3---3---3---3---3---3---3---3-|---3---3---3---3---3---3---3---3-|
G|---0---0---0---0---0---0---0---0-|---0---0---0---0---0---0---0---0-|
D|---------------------------------|---------------------------------|
A|---------------------------------|---------------------------------|
E|-3---3---3---3---3---3---3---3---|-0---0---0---0---0---0---0---0---|
   1 + 2 + 3 + 4 + 5 + 6 + 7 + 8 +   1 + 2 + 3 + 4 + 5 + 6 + 7 + 8 +

  Cadd9                             Em7      D       G       Cadd9
e|---------------------------------|---------------------------------|
B|---3---3---3---3---3---3---3---3-|---3---3---3---3---3---3---3---3-|
G|---0---0---0---0---0---0---0---0-|---0---0---2---2---0---0---0---0-|
D|---------------------------------|---------0---0-------------------|
A|-3---3---3---3---3---3---3---3---|-------------------------3---3---|
E|---------------------------------|-0---0-----------3---3-----------|
   1 + 2 + 3 + 4 + 5 + 6 + 7 + 8 +   1 + 2 + 3 + 4 + 5 + 6 + 7 + 8 +

  Cadd9        D   G
e|---------------------------------|-------------------------|
B|---3---3---3---3---3---3---3---3-|---3---3---3---3---3---3-|
G|---0---0---0---2---0---0---0---0-|---0---0---0---0---0---0-|
D|-------------0-------------------|-------------------------|
A|-3---3---3-----------------------|-------------------------|
E|-----------------3---3---3---3---|-3---3---3---3---3---3---|
   1 + 2 + 3 + 4 + 5 + 6 + 7 + 8 +   1 + 2 + 3 + 4 + 5 + 6 + 

  Em7      D       G       Cadd9                 D   G
e|---------------------------------|---------------------------------|-----------------3-|
B|---3---3---3---3---3---3---3---3-|---3---3---3---3---3---3---3---3-|---3-------------3-|
G|---0---0---2---2---0---0---0---0-|---0---0---0---2---0---0---0---0-|---0-------------0-|
D|---------0---0-------------------|-------------0-------------------|-----------------0-|
A|-------------------------3---3---|-3---3---3-----------------------|-----------------2-|
E|-0---0-----------3---3-----------|-----------------3---3---3---3---|-3---------------3-|
   1 + 2 + 3 + 4 + 5 + 6 + 7 + 8 +   1 + 2 + 3 + 4 + 5 + 6 + 7 + 8 +   1 + 2 + 3 + 4 + 1
Suggest correction
comments
print report bad tab
guest
You may want to rate the tab now too:
select rating
Wanna post a correction for this tab? Suggest correction