Oops, an error
Loading. Please wait.

This Town Tab

version 1
version 1

Whole song

  • This is the studio version tab with a variation al... Show more
  • Version corrects the previous version's tabs, spec... Show more
  • The chords match the song if you play with it.

Video

22,363 views 2,106 this week
5 commentsread comments
1 2 3 4 5
x 31
add to favorites
launch autoscroll
font size
0
reset
how to read this tab
guitar tuner
Autoscroll
slow
fast
+/-
esc
set tempo
stop
Help us to improve Ultimate-Guitar.com Take our survey!
×
Author
Difficulty
Capo
intermediate
2nd fret
-------------------------------------------------------------------------  
      VIDEO LESSON - https://www.youtube.com/watch?v=uMzG94oZv8s
------------------------------------------------------------------------- 

------------------------------- 
       CAPO ON 2ND FRET
-------------------------------


[Intro]

   G
e|---------------------------------|
B|---0---0---0---0---0---0---0---0-|
G|---0---0---0---0---0---0---0---0-|
D|---------------------------------|
A|---------------------------------|
E|-3---3---3---3---3---3---3---3---|


[Verse 1]

   G                                 Em
e|---------------------------------|---------------------------------|
B|---0---0---0---0---0---0---0---0-|---0---0---0---0---0---0---0---0-|
G|---0---0---0---0---0---0---0---0-|---0---0---0---0---0---0---0---0-|
D|---------------------------------|---------------------------------|
A|---------------------------------|---------------------------------|
E|-3---3---3---3---3---3---3---3---|-0---0---0---0---0---0---0---0---|

   C
e|---------------------------------|
B|---1---1---1---1---1---1---1---1-|
G|---0---0---0---0---0---0---0---0-|
D|---------------------------------|
A|-3---3---3---3---3---3---3---3---|
E|---------------------------------|

   G                                 Em
e|---------------------------------|---------------------------------|
B|---0---0---0---0---0---0---0---0-|---0---0---0---0---0---0---0---0-|
G|---0---0---0---0---0---0---0---0-|---0---0---0---0---0---0---0---0-|
D|---------------------------------|---------------------------------|
A|---------------------------------|---------------------------------|
E|-3---3---3---3---3---3---3---3---|-0---0---0---0---0---0---0---0---|

   C                                 D
e|---------------------------------|---2---2---2---2---2---2---2---2-|
B|---1---1---1---1---1---1---1---1-|---3---3---3---3---3---3---3---3-|
G|---0---0---0---0---0---0---0---0-|---------------------------------|
D|---------------------------------|-0---0---0---0---0---0---0---0---|
A|-3---3---3---3---3---3---3---3---|---------------------------------|
E|---------------------------------|---------------------------------|


[Prechorus]

   Am              D                 G       D/F#    Em
e|-------------------2---2---2---2-|---------------------------------|
B|---1---1---1---1---3---3---3---3-|---0---0---0---0---0---0---0---0-|
G|---2---2---2---2-----------------|---0---0---0---0---0---0---0---0-|
D|-----------------0---0---0---0---|---------------------------------|  x2
A|-0---0---0---0-------------------|---------------------------------|
E|---------------------------------|-3---3---2---2---0---0---0---0---|
        C
e|---------------------------------|
B|---1---1---1---1---1---1---1---1-|
G|---0---0---0---0---0---0---0---0-|
D|---------------------------------|
A|-3---3---3---3---3---3---3---3---|
E|---------------------------------|

 
[Chorus]

   Em                                C
e|---------------------------------|---------------------------------|
B|---0---0---0---0---0---0---0---0-|---0---0---0---0---0---0---0---0-|
G|---0---0---0---0---0---0---0---0-|---0---0---0---0---0---0---0---0-|
D|---------------------------------|---------------------------------|
A|---------------------------------|-3---3---3---3---3---3---3---3---|
E|-0---0---0---0---0---0---0---0---|---------------------------------|

   G                                 Em      D       G       C                 Em    D 
e|---------------------------------|-----------2---2-------------------------|-------2-----|
B|---0---0---0---0---0---0---0---0-|---0---0---3---3---0---0---1---1---1---1-|---0---3---0-|
G|---0---0---0---0---0---0---0---0-|---0---0-----------0---0---0---0---0---0-|---0-------0-|
D|---------------------------------|---------0----0--------------------------|---------0---|
A|---------------------------------|-------------------------3---3---3---3---|-------------|
E|-3---3---3---3---3---3---3---3---|-0---0-----------3---3-------------------|-0---0-------|

   G                                 
e|---------------------------------|
B|---0---0---0---0---0---0---0---0-|
G|---0---0---0---0---0---0---0---0-|
D|---------------------------------|
A|---------------------------------|
E|-3---3---3---3---3---3---3---3---|


[Verse 2]

   G                                 Em
e|---------------------------------|---------------------------------|
B|---0---0---0---0---0---0---0---0-|---0---0---0---0---0---0---0---0-|
G|---0---0---0---0---0---0---0---0-|---0---0---0---0---0---0---0---0-|
D|---------------------------------|---------------------------------|
A|---------------------------------|---------------------------------|
E|-3---3---3---3---3---3---3---3---|-0---0---0---0---0---0---0---0---|

   C                                 D
e|---------------------------------|---2---2---2---2---2---2---2---2-|
B|---1---1---1---1---1---1---1---1-|---3---3---3---3---3---3---3---3-|
G|---0---0---0---0---0---0---0---0-|---------------------------------|
D|---------------------------------|-0---0---0---0---0---0---0---0---|
A|-3---3---3---3---3---3---3---3---|---------------------------------|
E|---------------------------------|---------------------------------|


[Prechorus 2]

   Am              D                 G       D/F#    Em
e|-------------------2---2---2---2-|---------------------------------|
B|---1---1---1---1---3---3---3---3-|---0---0---0---0---0---0---0---0-|
G|---2---2---2---2-----------------|---0---0---0---0---0---0---0---0-|
D|-----------------0---0---0---0---|---------------------------------|  x2
A|-0---0---0---0-------------------|---------------------------------|
E|---------------------------------|-3---3---2---2---0---0---0---0---|
        C
e|---------------------------------|
B|---1---1---1---1---1---1---1---1-|
G|---0---0---0---0---0---0---0---0-|
D|---------------------------------|
A|-3---3---3---3---3---3---3---3---|
E|---------------------------------|


[Chorus 2]
   Em                                C
e|---------------------------------|---------------------------------|
B|---0---0---0---0---0---0---0---0-|---0---0---0---0---0---0---0---0-|
G|---0---0---0---0---0---0---0---0-|---0---0---0---0---0---0---0---0-|
D|---------------------------------|---------------------------------|
A|---------------------------------|-3---3---3---3---3---3---3---3---|
E|-0---0---0---0---0---0---0---0---|---------------------------------|


   G                                 Em      D       G       C 
e|---------------------------------|-----------2---2-------------------------|
B|---0---0---0---0---0---0---0---0-|---0---0---3---3---0---0---1---1---1---1-|
G|---0---0---0---0---0---0---0---0-|---0---0-----------0---0---0---0---0---0-|
D|---------------------------------|---------0----0--------------------------|
A|---------------------------------|-------------------------3---3---3---3---|
E|-3---3---3---3---3---3---3---3---|-0---0-----------3---3-------------------|

   G                                 Em
e|---------------------------------|---------------------------------|
B|---0---0---0---0---0---0---0---0-|---0---0---0---0---0---0---0---0-|
G|---0---0---0---0---0---0---0---0-|---0---0---0---0---0---0---0---0-|
D|---------------------------------|---------------------------------|
A|---------------------------------|---------------------------------|
E|-3---3---3---3---3---3---3---3---|-0---0---0---0---0---0---0---0---|

   C                                 Em      D       G       C                 Em    D
e|---------------------------------|-----------2---2-------------------------|-------2-----|
B|---0---0---0---0---0---0---0---0-|---0---0---3---3---0---0---1---1---1---1-|---0---3---0-|
G|---0---0---0---0---0---0---0---0-|---0---0-----------0---0---0---0---0---0-|---0-------0-|
D|---------------------------------|---------0----0--------------------------|---------0---|
A|-3---3---3---3---3---3---3---3---|-------------------------3---3---3---3---|-------------|
E|---------------------------------|-0---0-----------3---3-------------------|-0---0-------|
   G                                 
e|---------------------------------|
B|---0---0---0---0---0---0---0---0-|
G|---0---0---0---0---0---0---0---0-|
D|---------------------------------|
A|---------------------------------|
E|-3---3---3---3---3---3---3---3---|


[Bridge]
   Em              D/F#              G                 C
e|---------------------------------|-----------------|---------------------------------|
B|---0---0---0---0---0---0---0---0-|---0---0---0---0-|---0---0---0---0---0---0---0---0-|
G|---0---0---0---0---2---2---2---2-|---0---0---0---0-|---0---0---0---0---0---0---0---0-|
D|---------------------------------|-----------------|---------------------------------|
A|---------------------------------|-----------------|-3---3---3---3---3---3---3---3---|
E|-0---0---0---0---2---2---2---2---|-3---3---3---3---|---------------------------------|


[Chorus 3]
   Em                                C
e|---------------------------------|---------------------------------|
B|---0---0---0---0---0---0---0---0-|---0---0---0---0---0---0---0---0-|
G|---0---0---0---0---0---0---0---0-|---0---0---0---0---0---0---0---0-|
D|---------------------------------|---------------------------------|
A|---------------------------------|-3---3---3---3---3---3---3---3---|
E|-0---0---0---0---0---0---0---0---|---------------------------------|


   G                                 Em      D       G       C 
e|---------------------------------|-----------2---2-------------------------|
B|---0---0---0---0---0---0---0---0-|---0---0---3---3---0---0---1---1---1---1-|
G|---0---0---0---0---0---0---0---0-|---0---0-----------0---0---0---0---0---0-|
D|---------------------------------|---------0----0--------------------------|
A|---------------------------------|-------------------------3---3---3---3---|
E|-3---3---3---3---3---3---3---3---|-0---0-----------3---3-------------------|

   G                                 Em
e|---------------------------------|---------------------------------|
B|---0---0---0---0---0---0---0---0-|---0---0---0---0---0---0---0---0-|
G|---0---0---0---0---0---0---0---0-|---0---0---0---0---0---0---0---0-|
D|---------------------------------|---------------------------------|
A|---------------------------------|---------------------------------|
E|-3---3---3---3---3---3---3---3---|-0---0---0---0---0---0---0---0---|

   C                                 
e|---------------------------------|
B|---0---0---0---0---0---0---0---0-|
G|---0---0---0---0---0---0---0---0-|
D|---------------------------------|
A|-3---3---3---3---3---3---3---3---|
E|---------------------------------|

   Em      D       G       C                 Em    D       G                                 
e|-----------2---2-------------------------|-------2-----|---------------------------------|
B|---0---0---3---3---0---0---1---1---1---1-|---0---3---0-|---0---0---0---0---0---0---0---0-|
G|---0---0-----------0---0---0---0---0---0-|---0-------0-|---0---0---0---0---0---0---0---0-|
D|---------0----0--------------------------|---------0---|---------------------------------|   x2
A|-------------------------3---3---3---3---|-------------|---------------------------------|
E|-0---0-----------3---3-------------------|-0---0-------|-3---3---3---3---3---3---3---3---|

   G                                 
e|---|
B|-0-|
G|-0-|
D|-0-|
A|-2-|
E|-3-|
Suggest correction
comments
print report bad tab
5 comments total. Showing first comments.
+1 reply
Indey 10 Oct 02, 2016 09:22 PM

When he plays it live, or in the version on YouTube that I could find he always holds down the B string on the 3 fret.

0 reply
Davetran 3,200 Oct 02, 2016 10:16 PM

that's correct, he uses Em7, G, D and Cadd9. this tab is for the recorded version

0 reply
lhennessy1120 151 Nov 12, 2016 04:07 PM

didn't like this contribution

guest
You may want to rate the tab now too:
select rating
Wanna post a correction for this tab? Suggest correction