Oops, an error
Loading. Please wait.
We have Chord Pro version of This Town.
It's the closest thing you can get to the original song and it has interactive parts. Check out the tab »
×

This Town chords

version 12
version 12

Whole song

  • I guess it sounds pretty accurate, I've made this tab by listening to the song.
  • This version was taken directly from the live 1 Mi... Show more
  • I believe this is exactly what he sings and plays ... Show more
  • The first version without capo.
  • This specific tab is based off the studio recorded... Show more
  • This is in a higher key so it is easier to sing al... Show more

Interactive

Video

790 views 12 this week
no commentswrite comment
1 2 3 4 5
1 last vote to show rating
add to favorites
×
Save as Personal and add changes to this tab that will be seen only by you. Learn more ›
×
You can save this tab as Personal to edit and correct it or add notes. All changes will be seen only by you. Learn more »
launch autoscroll
font size
0
reset
transpose
0
reset
simplify chords
display chords
guitar tuner
edit
Autoscroll
slow
fast
+/-
esc
set tempo
stop
Author
Difficulty
About this tab version
The first version without capo. Was this info helpful? Yes No
Strumming
There is no strumming pattern for this song yet. and get +5 IQ
[Intro]

e|---------------------------------------------------------------------------|
B|--2--2--2--2--2--2--2--2---------------------------------------------------|
G|--2--2--2--2--2--2--2--2---------------------------------------------------|
D|---------------------------------------------------------------------------|
A|-0--0--0--0--0--0--0--0----------------------------------------------------|
E|---------------------------------------------------------------------------|


[Verse]
A
Waking up to kiss you and nobody’s there
F#m
The smell of your perfume still stuck in the air
Dmaj7   D
It’s hard
A
Yesterday I thought I saw your shadow running round
     F#m
It’s funny how things never change in this old town
   Dmaj7 D       E
So far from the stars
  A                       F#m                      Dmaj7       D
e|---------------------------------------------------------------------------|
B|--2--2--2--2--2--2--2--2--2--2--2--2--2--2--2--2--2--2--2--2--3--3--3--3---|
G|--2--2--2--2--2--2--2--2--2--2--2--2--2--2--2--2--2--2--2--2--2--2--2--2---|
D|-------------------------------------------------0--0--0--0--0--0--0--0----|
A|-0--0--0--0--0--0--0--0----------------------------------------------------|
E|-------------------------2--2--2--2--2--2--2--2----------------------------|
  A                       F#m                     Dmaj7        D            E
e|----------------------------------------------------------------------------------------------------|
B|--2--2--2--2--2--2--2--2--2--2--2--2--2--2--2--2--2--2--2--2--3--3--3--3---5--5--5--5--5--5--5--5---|
G|--2--2--2--2--2--2--2--2--2--2--2--2--2--2--2--2--2--2--2--2--2--2--2--2---4--4--4--4--4--4--4--4---|
D|-------------------------------------------------0--0--0--0--0--0--0--0---2--2--2--2--2--2--2--2----|
A|-0--0--0--0--0--0--0--0-----------------------------------------------------------------------------|
E|-------------------------2--2--2--2--2--2--2--2-----------------------------------------------------|


[Pre - Chorus]

Bm7                      E
  And I want to tell you everything
                  A              E/G#        F#m
The words I never got to say the first time around
Bm7              E
  And I remember everything
                      A                   E/G#     F#m
From when we were the children playing in this fairground
                          D
Wish I was there with you now


  Bm7          E           A     E/G#  F#m
e|---------------------------------------------------------------------------|
B|--3--3--3--3--5--5--5--5--2--2--5--5--2--2--2--2---------------------------|
G|--2--2--2--2--4--4--4--4--2--2--4--4--2--2--2--2---------------------------|
D|-------------2--2--2--2----------------------------------------------------|
A|-2--2--2--2--------------0--0----------------------------------------------|
E|-------------------------------4--4--2--2--2--2----------------------------|


  Bm7          E           A     E/G#  F#m          D
e|---------------------------------------------------------------------------|
B|--3--3--3--3--5--5--5--5--2--2--5--5--2--2--2--2---3--3--3--3--3--3--3--3--|
G|--2--2--2--2--4--4--4--4--2--2--4--4--2--2--2--2---2--2--2--2--2--2--2--2--|
D|-------------2--2--2--2---------------------------0--0--0--0--0--0--0--0---|
A|-2--2--2--2--------------0--0----------------------------------------------|
E|-------------------------------4--4--2--2--2--2----------------------------|

[Chorus]

       F#m
If the whole world was watching I’d still dance with you
      Dmaj7
Drive highways and byways to be there with you
A
Over and over the only truth
F#m   E           A       D
Everything comes back to you
F#m  E A
Mmm-mm-mm

   F#m                      Dmaj7                     A                   F#m     E     A      D
e|-----------------------------------------------------------------------------------------------------------|
B|--2--2--2--2--2--2--2--2--2--2--2--2--2--2--2--2--2--2--2--2--2--2--2--2--2--2---5--5--2--2---3--3--3--3---|
G|--2--2--2--2--2--2--2--2--2--2--2--2--2--2--2--2--2--2--2--2--2--2--2--2--2--2---4--4--2--2---2--2--2--2---|
D|-------------------------0--0--0--0--0--0--0--0---------------------------------2--2---------0--0--0--0----|
A|-------------------------------------------------0--0--0--0--0--0--0--0---------------0--0-----------------|
E|-2--2--2--2--2--2--2--2--------------------------------------------------2--2------------------------------|

   F#m   E      A   
e|---------------------------------------------------------------------------|
B|--2--2---5--5--2--2--2--2--2--2--2--2--------------------------------------|
G|--2--2---4--4--2--2--2--2--2--2--2--2--------------------------------------|
D|--------2--2---------------------------------------------------------------|
A|--------------0--0--0--0--0--0--0--0---------------------------------------|
E|-2--2----------------------------------------------------------------------|

[Verse]

  A
I saw that you moved on with someone new
       F#m
In the pub that we met he’s got his arms around you
     Dmaj7   D
It’s so hard
   E
So hard
  A                       F#m                     Dmaj7        D            E
e|----------------------------------------------------------------------------------------------------|
B|--2--2--2--2--2--2--2--2--2--2--2--2--2--2--2--2--2--2--2--2--3--3--3--3---5--5--5--5--5--5--5--5---|
G|--2--2--2--2--2--2--2--2--2--2--2--2--2--2--2--2--2--2--2--2--2--2--2--2---4--4--4--4--4--4--4--4---|
D|-------------------------------------------------0--0--0--0--0--0--0--0---2--2--2--2--2--2--2--2----|
A|-0--0--0--0--0--0--0--0-----------------------------------------------------------------------------|
E|-------------------------2--2--2--2--2--2--2--2-----------------------------------------------------|
|

[Pre-Chorus]

Bm7                      E
  And I want to tell you everything
                  A              E/G#        F#m
The words I never got to say the first time around
Bm7              E
  And I remember everything
                      A                   E/G#     F#m
From when we were the children playing in this fairground
                          D
Wish I was there with you now

  Bm7          E           A     E/G#  F#m
e|---------------------------------------------------------------------------|
B|--3--3--3--3--5--5--5--5--2--2--5--5--2--2--2--2---------------------------|
G|--2--2--2--2--4--4--4--4--2--2--4--4--2--2--2--2---------------------------|
D|-------------2--2--2--2----------------------------------------------------|
A|-2--2--2--2--------------0--0----------------------------------------------|
E|-------------------------------4--4--2--2--2--2----------------------------|


  Bm7          E           A     E/G#  F#m          D
e|---------------------------------------------------------------------------|
B|--3--3--3--3--5--5--5--5--2--2--5--5--2--2--2--2---3--3--3--3--3--3--3--3--|
G|--2--2--2--2--4--4--4--4--2--2--4--4--2--2--2--2---2--2--2--2--2--2--2--2--|
D|-------------2--2--2--2---------------------------0--0--0--0--0--0--0--0---|
A|-2--2--2--2--------------0--0----------------------------------------------|
E|-------------------------------4--4--2--2--2--2----------------------------|

[Chorus]

       F#m
If the whole world was watching I’d still dance with you
      Dmaj7
Drive highways and byways to be there with you
A
Over and over the only truth
F#m   E           A       D
Everything comes back to you
    A
You still make me nervous when you walk in the room
     F#m
Them butterflies they come alive when I’m next to you
Dmaj7
Over and over the only truth
F#m   E           A       D
Everything comes back to you
F#m  E A
Mmm-mm-mm

   F#m                      Dmaj7                     A                   F#m     E     A      D
e|-----------------------------------------------------------------------------------------------------------|
B|--2--2--2--2--2--2--2--2--2--2--2--2--2--2--2--2--2--2--2--2--2--2--2--2--2--2---5--5--2--2---3--3--3--3---|
G|--2--2--2--2--2--2--2--2--2--2--2--2--2--2--2--2--2--2--2--2--2--2--2--2--2--2---4--4--2--2---2--2--2--2---|
D|-------------------------0--0--0--0--0--0--0--0---------------------------------2--2---------0--0--0--0----|
A|-------------------------------------------------0--0--0--0--0--0--0--0---------------0--0-----------------|
E|-2--2--2--2--2--2--2--2--------------------------------------------------2--2------------------------------|
    A                       F#m                     Dmaj7
e|---------------------------------------------------------------------------|
B|---2--2--2--2--2--2--2--2--2--2--2--2--2--2--2--2--2--2--2--2--2--2--2--2--|
G|---2--2--2--2--2--2--2--2--2--2--2--2--2--2--2--2--2--2--2--2--2--2--2--2--|
D|--------------------------------------------------0--0--0--0--0--0--0--0---|
A|--0--0--0--0--0--0--0--0---------------------------------------------------|
E|--------------------------2--2--2--2--2--2--2--2---------------------------|
   F#m   E     A     D
e|-----------------------------------------------------------------------------|
B|--2--2--5--5--2--2--3--3--3--3-----------------------------------------------|
G|--2--2--4--4--2--2--2--2--2--2-----------------------------------------------|
D|-------2--2--------0--0--0--0------------------------------------------------|
A|-------------0--0------------------------------------------------------------|
E|-2--2------------------------------------------------------------------------|

   F#m   E      A   
e|---------------------------------------------------------------------------|
B|--2--2---5--5--2--2--2--2--2--2--2--2--------------------------------------|
G|--2--2---4--4--2--2--2--2--2--2--2--2--------------------------------------|
D|--------2--2---------------------------------------------------------------|
A|--------------0--0--0--0--0--0--0--0---------------------------------------|
E|-2--2----------------------------------------------------------------------|

[Bridge]

F#m                     E/G#
  And I know that it’s wrong
                  A
That I can’t move on
                            D
But there’s something about you

    F#m         E/G#       A            D
e|---------------------------------------------------------------------------|
B|---2--2--2--2--5--5--5--5--2--2--2--2--3--3--3--3--3--3--3--3--------------|
G|---2--2--2--2--4--4--4--4--2--2--2--2--2--2--2--2--2--2--2--2--------------|
D|--------------------------------------0--0--0--0--0--0--0--0---------------|
A|--------------------------0--0--0--0---------------------------------------|
E|--2--2--2--2--4--4--4--4---------------------------------------------------|

[Chorus]

       F#m
If the whole world was watching I’d still dance with you
      Dmaj7
Drive highways and byways to be there with you
A
Over and over the only truth
F#m    E           A       D
Everything comes back to you
    A
You still make me nervous when you walk in the room
     F#m 
Them butterflies they come alive when I’m next to you
Dmaj7
Over and over the only truth
F#m   E           A       D
Everything comes back to you
F#m  E A
Mmm-mm-mm
F#m   E           A       D
Everything comes back to you
F#m  E A
Mmm-mm-mm


   F#m                     Dmaj7                   A                       F#m    E     A      D
e|-----------------------------------------------------------------------------------------------------------|
B|--2--2--2--2--2--2--2--2--2--2--2--2--2--2--2--2--2--2--2--2--2--2--2--2--2--2---5--5--2--2---3--3--3--3---|
G|--2--2--2--2--2--2--2--2--2--2--2--2--2--2--2--2--2--2--2--2--2--2--2--2--2--2---4--4--2--2---2--2--2--2---|
D|--------------------------------------------------------------------------------2--2---------0--0--0--0----|
A|-------------------------5--5--5--5--5--5--5--5--0--0--0--0--0--0--0--0---------------0--0-----------------|
E|-2--2--2--2--2--2--2--2--------------------------------------------------2--2------------------------------|
    A                       F#m                     Dmaj7
e|---------------------------------------------------------------------------|
B|---2--2--2--2--2--2--2--2--2--2--2--2--2--2--2--2--2--2--2--2--2--2--2--2--|
G|---2--2--2--2--2--2--2--2--2--2--2--2--2--2--2--2--2--2--2--2--2--2--2--2--|
D|--------------------------------------------------0--0--0--0--0--0--0--0---|
A|--0--0--0--0--0--0--0--0---------------------------------------------------|
E|--------------------------2--2--2--2--2--2--2--2---------------------------|
   F#m   E     A     D
e|-----------------------------------------------------------------------------|
B|--2--2--5--5--2--2--3--3--3--3-----------------------------------------------|
G|--2--2--4--4--2--2--2--2--2--2-----------------------------------------------|
D|-------2--2--------0--0--0--0------------------------------------------------|
A|-------------0--0------------------------------------------------------------|
E|-2--2------------------------------------------------------------------------|

   F#m   E      A   
e|---------------------------------------------------------------------------|
B|--2--2---5--5--2--2--2--2--2--2--2--2--------------------------------------|
G|--2--2---4--4--2--2--2--2--2--2--2--2--------------------------------------|
D|--------2--2---------------------------------------------------------------|
A|--------------0--0--0--0--0--0--0--0---------------------------------------|
E|-2--2----------------------------------------------------------------------|

   F#m   E     A     D
e|-----------------------------------------------------------------------------|
B|--2--2--5--5--2--2--3--3--3--3-----------------------------------------------|
G|--2--2--4--4--2--2--2--2--2--2-----------------------------------------------|
D|-------2--2--------0--0--0--0------------------------------------------------|
A|-------------0--0------------------------------------------------------------|
E|-2--2------------------------------------------------------------------------|

   F#m   E      A   
e|---------------------------------------------------------------------------|
B|--2--2---5--5--2--2--2--2--2--2--2--2--------------------------------------|
G|--2--2---4--4--2--2--2--2--2--2--2--2--------------------------------------|
D|--------2--2---------------------------------------------------------------|
A|--------------0--0--0--0--0--0--0--0---------------------------------------|
E|-2--2----------------------------------------------------------------------|



************************************

| x   Dead note
| g   Grace note
| (n) Ghost note
| h   Hammer-on
| p   Pull-off
| r   Release
| >   Accented note
| t   Tapping
| b   Bend
| br  Bend release
| pb  Pre-bend
| pbr Pre-bend release
| /   Slide up
| \   Slide down
| ~   Vibrato
| s   Slap
| P   Pop
| PM  Palm mute
| TR  Trill
| N   Tremolo

************************************

            
            
Suggest correction
Creating personal tab
Creating personal tab
You can edit any tab online and save it as your Personal.

You can edit, replace or remove any tab part or add personal notes – all changes will be seen only by you.

Personal tabs can be accessed anytime from any device, even offline.
Learn more »
Give kudos to tab author, rate the tab!
1 2 3 4 5
comments
print report bad tab
guest
You may want to rate the tab now too:
select rating
Wanna post a correction for this tab? Suggest correction