Oops, an error
Loading. Please wait.

This Town Tab

version 2
version 2

Whole song

  • This is the studio version tab with a variation al... Show more
  • Version corrects the previous version's tabs, spec... Show more
  • The chords match the song if you play with it.

Video

12,118 views 831 this week
8 commentsread comments
1 2 3 4 5
x 63
add to favorites
launch autoscroll
font size
0
reset
how to read this tab
guitar tuner
Autoscroll
slow
fast
+/-
esc
set tempo
stop
Help us to improve Ultimate-Guitar.com Take our survey!
×
Author
Difficulty
Capo
novice
2nd fret
About this tab version
This is the studio version tab with a variation also to play it live if you'd like to, along with the lyrics that belong to each part of the song.
Niall Horan's new song This Town that came out yesterday, tab is from Letsplayguitar
tutorial on
youtube. If you do not understand tabs, check out the video version.
Capo on 2nd fret, for live version you put your ring ringer on the b string fret 3
instead of open B string
every single time you hit that string throughout the whole song. Studio version is open
B string.

[Intro]

e|-------------|
B|--0--0--0--0-|
G|--0--0--0--0-|
D|-------------|  x2
A|-------------|
E|-3--3--3--3--|

[Verse]

   G (Base note only)       Em (Open)                C (Base note only)
e|---------------------------------------------------------------------------|
B|--0--0--0--0--0--0--0--0---0--0--0--0--0--0--0--0---0--0--0--0--0--0--0--0-|
G|--0--0--0--0--0--0--0--0---0--0--0--0--0--0--0--0---0--0--0--0--0--0--0--0-|
D|---------------------------------------------------------------------------|
A|---------------------------------------------------3--3--3--3--3--3--3--3--|
E|-3--3--3--3--3--3--3--3---0--0--0--0--0--0--0--0---------------------------|

Waking up to kiss you and nobody’s there
The smell of your perfume still stuck in the air
It’s Hard

   G                        Em                       C                         D
e|-----------------------------------------------------------------------------------------------------|
B|--0--0--0--0--0--0--0--0---0--0--0--0--0--0--0--0---0--0--0--0--0--0--0--0----3--3--3--3--3--3--3--3-|
G|--0--0--0--0--0--0--0--0---0--0--0--0--0--0--0--0---0--0--0--0--0--0--0--0----2--2--2--2--2--2--2--2-|
D|-----------------------------------------------------------------------------0--0--0--0--0--0--0--0--|
A|---------------------------------------------------3--3--3--3--3--3--3--3----------------------------|
E|-3--3--3--3--3--3--3--3---0--0--0--0--0--0--0--0-----------------------------------------------------|

Yesterday I thought I saw your shadow running round
It’s funny how things never change in this old town
So far from the stars


[Pre-Chorus]

e|-----------------------------------------------------------------------------------------------------------|
B|--0--0--0--0---3--3--3--3---0--0---0--0---0--0--0--0---0--0--0--0-----3--3--3--3---0--0---0--0---0--0--0--0|
G|--0--0--0--0---2--2--2--2---0--0---0--0---0--0--0--0---0--0--0--0-----2--2--2--2---0--0---0--0---0--0--0--0|
D|--------------0--0--0--0---------------------------------------------0--0--0--0----------------------------|
A|-3--3--3--3-------------------------------------------3--3--3--3-------------------------------------------|
E|---------------------------3--3---2--2---0--0--0--0-------------------------------3--3---2--2---0--0--0--0-|

And I want to tell you everything
The words I never got to say the first time around

e|--------------------------|
B|--0--0--0--0--0--0--0--0--|
G|--0--0--0--0--0--0--0--0--|
D|--------------------------|
A|-3--3--3--3--3--3--3--3---|
E|--------------------------|

And I remember everything
From when we were the children playing in this fairground
Wish I was there with you now


[Chorus]

e|--------------------------------------------------------------------------------------------------------|
B|--0--0--0--0--0--0--0--0---0--0--0--0--0--0--0--0---0--0--0--0--0--0--0--0---0--0----3--3---0--0---0--0-|
G|--0--0--0--0--0--0--0--0---0--0--0--0--0--0--0--0---0--0--0--0--0--0--0--0---0--0----2--2---0--0---0--0-|
D|------------------------------------------------------------------------------------0--0----------------|
A|--------------------------3--3--3--3--3--3--3--3--------------------------------------------------3--3--|
E|-0--0--0--0--0--0--0--0----------------------------3--3--3--3--3--3--3--3---0--0-----------3--3---------|

If the whole world was watching I’d still dance with you
Drive highways and byways to be there with you
Over and over the only truth


e|--------------------|  (Goes right into verse after with the G)
B|--0--0--0--0----3---|
G|--0--0--0--0----2---|
D|---------------0----|
A|-3--3--3--3---------|
E|--------------------|

Mm mm


[Verse]

   G                        Em                       C                         D
e|-----------------------------------------------------------------------------------------------------|
B|--0--0--0--0--0--0--0--0---0--0--0--0--0--0--0--0---0--0--0--0--0--0--0--0----3--3--3--3--3--3--3--3-|
G|--0--0--0--0--0--0--0--0---0--0--0--0--0--0--0--0---0--0--0--0--0--0--0--0----2--2--2--2--2--2--2--2-|
D|-----------------------------------------------------------------------------0--0--0--0--0--0--0--0--|
A|---------------------------------------------------3--3--3--3--3--3--3--3----------------------------|
E|-3--3--3--3--3--3--3--3---0--0--0--0--0--0--0--0-----------------------------------------------------|

I saw that you moved on with someone new
In the pub that we met he’s got his arms around you
It’s so hard
So Hard

[Pre-Chorus]

e|-----------------------------------------------------------------------------------------------------------|
B|--0--0--0--0---3--3--3--3---0--0---0--0---0--0--0--0---0--0--0--0-----3--3--3--3---0--0---0--0---0--0--0--0|
G|--0--0--0--0---2--2--2--2---0--0---0--0---0--0--0--0---0--0--0--0-----2--2--2--2---0--0---0--0---0--0--0--0|
D|--------------0--0--0--0---------------------------------------------0--0--0--0----------------------------|
A|-3--3--3--3-------------------------------------------3--3--3--3-------------------------------------------|
E|---------------------------3--3---2--2---0--0--0--0-------------------------------3--3---2--2---0--0--0--0-|

And I want to tell you everything
The words I never got to say the first time around
And I remember everything
From when we were the children playing in this fairground

e|--------------------------|
B|--0--0--0--0--0--0--0--0--|
G|--0--0--0--0--0--0--0--0--|
D|--------------------------|
A|-3--3--3--3--3--3--3--3---|
E|--------------------------|

Wish I was there with you now

[Chorus]

e|--------------------------------------------------------------------------------------------------------|
B|--0--0--0--0--0--0--0--0---0--0--0--0--0--0--0--0---0--0--0--0--0--0--0--0---0--0----3--3---0--0---0--0-|
G|--0--0--0--0--0--0--0--0---0--0--0--0--0--0--0--0---0--0--0--0--0--0--0--0---0--0----2--2---0--0---0--0-|
D|------------------------------------------------------------------------------------0--0----------------|
A|--------------------------3--3--3--3--3--3--3--3--------------------------------------------------3--3--|
E|-0--0--0--0--0--0--0--0----------------------------3--3--3--3--3--3--3--3---0--0-----------3--3---------|

Cos if the whole world was watching I’d still dance with you
Drive highways and byways to be there with you
Over and over the only truth
Everything comes back to you

e|--------------------|
B|--0--0--0--0--------|
G|--0--0--0--0--------|
D|--------------------|
A|-3--3--3--3---------|
E|--------------------|

e|--------------------------------------------------------------------------------------------------------|
B|--0--0--0--0--0--0--0--0---0--0--0--0--0--0--0--0---0--0--0--0--0--0--0--0---0--0----3--3---0--0---0--0-|
G|--0--0--0--0--0--0--0--0---0--0--0--0--0--0--0--0---0--0--0--0--0--0--0--0---0--0----2--2---0--0---0--0-|
D|------------------------------------------------------------------------------------0--0----------------|
A|--------------------------3--3--3--3--3--3--3--3--------------------------------------------------3--3--|
E|-0--0--0--0--0--0--0--0----------------------------3--3--3--3--3--3--3--3---0--0-----------3--3---------|

You still make me nervous when you walk in the room
Them butterflies they come alive when I’m next to you
Over and over the only truth
Everything comes back to you

e|--------------------|
B|--0--0--0--0----3---|
G|--0--0--0--0----2---|
D|---------------0----|
A|-3--3--3--3---------|
E|--------------------|


[Bridge]

e|---------------------------------------------------------------------------|
B|--0--0--0--0---0--0--0--0---0--0--0--0---0--0--0--0--0--0--0--0------------|
G|--0--0--0--0---0--0--0--0---0--0--0--0---0--0--0--0--0--0--0--0------------|
D|---------------------------------------------------------------------------|
A|----------------------------------------3--3--3--3--3--3--3--3-------------|
E|-0--0--0--0---2--2--2--2---3--3--3--3--------------------------------------|

And I know that it’s wrong
That I can’t move on
But there’s something about you


[Chorus]
e|--------------------------------------------------------------------------------------------------------|
B|--0--0--0--0--0--0--0--0---0--0--0--0--0--0--0--0---0--0--0--0--0--0--0--0---0--0----3--3---0--0---0--0-|
G|--0--0--0--0--0--0--0--0---0--0--0--0--0--0--0--0---0--0--0--0--0--0--0--0---0--0----2--2---0--0---0--0-|
D|------------------------------------------------------------------------------------0--0----------------|
A|--------------------------3--3--3--3--3--3--3--3--------------------------------------------------3--3--|
E|-0--0--0--0--0--0--0--0----------------------------3--3--3--3--3--3--3--3---0--0-----------3--3---------|

If the whole world was watching I’d still dance with you
Drive highways and byways to be there with you
Over and over the only truth
Everything comes back to you

e|--------------------|
B|--0--0--0--0--------|
G|--0--0--0--0--------|
D|--------------------|
A|-3--3--3--3---------|
E|--------------------|

e|--------------------------------------------------------------------------------------------------------|
B|--0--0--0--0--0--0--0--0---0--0--0--0--0--0--0--0---0--0--0--0--0--0--0--0---0--0----3--3---0--0---0--0-|
G|--0--0--0--0--0--0--0--0---0--0--0--0--0--0--0--0---0--0--0--0--0--0--0--0---0--0----2--2---0--0---0--0-|
D|------------------------------------------------------------------------------------0--0----------------|
A|--------------------------3--3--3--3--3--3--3--3--------------------------------------------------3--3--|
E|-0--0--0--0--0--0--0--0----------------------------3--3--3--3--3--3--3--3---0--0-----------3--3---------|

You still make me nervous when you walk in the room
Them butterflies they come alive when I’m next to you
Over and over the only truth
Everything comes back to you

e|--------------------|
B|--0--0--0--0----3---|
G|--0--0--0--0----2---|
D|---------------0----|
A|-3--3--3--3---------|
E|--------------------|

(Everything comes back to you)

Source: http://www.directlyrics.com/niall-horan-this-town
Suggest correction
comments
print report bad tab
8 comments total. Showing first comments.
+2 reply
12guitar34 10 Oct 03, 2016 08:52 PM

Very good tab! Spot on ;)

+2 reply
yocatyolo 10 Oct 03, 2016 08:59 PM

thx so much..is the video on youtube the live version or studio???

+1 reply
lhennessy1120 151 Oct 03, 2016 09:12 PM

Video on NiallHoranVEVO is the live version. Studio version is the one on itunes

guest
You may want to rate the tab now too:
select rating
Wanna post a correction for this tab? Suggest correction