Oops, an error
Loading. Please wait.

This Town Tab

version 3
version 3

Whole song

  • This is the studio version tab with a variation al... Show more
  • Version corrects the previous version's tabs, spec... Show more
  • The chords match the song if you play with it.

Video

406 views 36 this week
no commentswrite comment
1 2 3 4 5
3 more votes to show rating
add to favorites
launch autoscroll
font size
0
reset
how to read this tab
guitar tuner
Autoscroll
slow
fast
+/-
esc
set tempo
stop
Help us to improve Ultimate-Guitar.com Take our survey!
×
Author
Difficulty
Capo
novice
2nd fret
About this tab version
Version corrects the previous version's tabs, specifically the B string and the D chord when it is played. Was this info helpful? Yes No
This Town, Niall Horan

Tab based on the Vevo YouTube video

Tabbed By Andy Jedlicka:
https://www.youtube.com/channel/UC02kG6RxGoHi85cPQFzzarQ

[Intro]

e|-------------|
B|--3--3--3--3-|
G|--0--0--0--0-| (repeat)
D|-------------|
A|-------------|
E|-3--3--3--3--|

[Verse 1] Part 1:

e|---------------------------------------------------------------------------|
B|--3--3--3--3--3--3--3--3---3--3--3--3--3--3--3--3---3--3--3--3--3--3--3--3-|
G|--0--0--0--0--0--0--0--0---0--0--0--0--0--0--0--0---0--0--0--0--0--0--0--0-|
D|---------------------------------------------------------------------------|
A|---------------------------------------------------3--3--3--3--3--3--3--0--|
E|-3--3--3--3--3--3--3--3---0--0--0--0--0--0--0--0---------------------------|

Waking up to kiss you and nobody's there
The smell of your perfume still stuck in the air, it's hard

[Verse 1] Part 2:

e|-----------------------------------------------------------------------------------------------------|
B|--3--3--3--3--3--3--3--3---3--3--3--3--3--3--3--3---3--3--3--3--3--3--3--3----3--3--3--3--3--3--3--3-|
G|--0--0--0--0--0--0--0--0---0--0--0--0--0--0--0--0---0--0--0--0--0--0--0--0----2--2--2--2--2--2--2--2-|
D|-----------------------------------------------------------------------------0--0--0--0--0--0--0--0--|
A|---------------------------------------------------3--3--3--3--3--3--3--3----------------------------|
E|-3--3--3--3--3--3--3--3---0--0--0--0--0--0--0--0-----------------------------------------------------|

Yesterday I thought I saw your shadow running round
It's funny how things never change in this old town,
So far from the stars


[Pre-Chorus]

e|-----------------------------------------------------------------------------------------------------------|
B|--1--1--1--1---3--3--3--3---3--3---3--3---3--3--3--3---1--1--1--1-----3--3--3--3---3--3---3--3---3--3--3--3|
G|--0--0--0--0---2--2--2--2---0--0---0--0---0--0--0--0---0--0--0--0-----2--2--2--2---0--0---0--0---0--0--0--0|
D|--------------0--0--0--0---------------------------------------------0--0--0--0----------------------------|
A|-3--3--3--3-------------------------------------------3--3--3--3-------------------------------------------|
E|---------------------------3--3---2--2---0--0--0--0-------------------------------3--3---2--2---0--0--0--0-|

And I wanna tell you everything
The words I never got to say the first time around,
And I remember everything
From when we were the children playing in this fairground,
Wish I was there with you now...

Into the Chorus:

e|--------------------------|
B|--3--3--3--3--3--3--3--3--|
G|--0--0--0--0--0--0--0--0--|
D|--------------------------|
A|-3--3--3--3--3--3--3--3---|
E|--------------------------|

[Chorus]

e|--------------------------------------------------------------------------------------------------------|
B|--3--3--3--3--3--3--3--3---3--3--3--3--3--3--3--3---3--3--3--3--3--3--3--3---3--3----3--3---3--3---3--3-|
G|--0--0--0--0--0--0--0--0---0--0--0--0--0--0--0--0---0--0--0--0--0--0--0--0---0--0----2--2---0--0---0--0-|
D|------------------------------------------------------------------------------------0--0----------------|
A|--------------------------3--3--3--3--3--3--3--3--------------------------------------------------3--3--|
E|-0--0--0--0--0--0--0--0----------------------------3--3--3--3--3--3--3--3---0--0-----------3--3---------|

'Cause if the whole world was watching, I'd still dance with you
Drive highways and byways to be there with you
Over and over, the only truth
Everything comes back to you

[Verse 2]

e|-----------------------------------------------------------------------------------------------------|
B|--3--3--3--3--3--3--3--3---3--3--3--3--3--3--3--3---3--3--3--3--3--3--3--3----3--3--3--3--3--3--3--3-|
G|--0--0--0--0--0--0--0--0---0--0--0--0--0--0--0--0---0--0--0--0--0--0--0--0----2--2--2--2--2--2--2--2-|
D|-----------------------------------------------------------------------------0--0--0--0--0--0--0--0--|
A|---------------------------------------------------3--3--3--3--3--3--3--3----------------------------|
E|-3--3--3--3--3--3--3--3---0--0--0--0--0--0--0--0-----------------------------------------------------|

I saw that you moved on with someone new
In the pub that we met, he's got his arms around you,
It's so hard, so hard..

[Pre-Chorus]

e|-----------------------------------------------------------------------------------------------------------|
B|--1--1--1--1---3--3--3--3---3--3---3--3---3--3--3--3---1--1--1--1-----3--3--3--3---3--3---3--3---3--3--3--3|
G|--0--0--0--0---2--2--2--2---0--0---0--0---0--0--0--0---0--0--0--0-----2--2--2--2---0--0---0--0---0--0--0--0|
D|--------------0--0--0--0---------------------------------------------0--0--0--0----------------------------|
A|-3--3--3--3-------------------------------------------3--3--3--3-------------------------------------------|
E|---------------------------3--3---2--2---0--0--0--0-------------------------------3--3---2--2---0--0--0--0-|

And I wanna tell you everything
Words I never got to say the first time around,
And I remember everything
From when we were the children playing in this fairground,
Wish I was there with you now...

Into the Chorus:

e|--------------------------|
B|--3--3--3--3--3--3--3--3--|
G|--0--0--0--0--0--0--0--0--|
D|--------------------------|
A|-3--3--3--3--3--3--3--3---|
E|--------------------------|

[Chorus]

e|--------------------------------------------------------------------------------------------------------|
B|--3--3--3--3--3--3--3--3---3--3--3--3--3--3--3--3---3--3--3--3--3--3--3--3---3--3----3--3---3--3---3--3-|
G|--0--0--0--0--0--0--0--0---0--0--0--0--0--0--0--0---0--0--0--0--0--0--0--0---0--0----2--2---0--0---0--0-|
D|------------------------------------------------------------------------------------0--0----------------|
A|--------------------------3--3--3--3--3--3--3--3--------------------------------------------------3--3--|
E|-0--0--0--0--0--0--0--0----------------------------3--3--3--3--3--3--3--3---0--0-----------3--3---------|


'Cause if the whole world was watching, I'd still dance with you
Drive highways and byways to be there with you
Over and over, the only truth
Everything comes back to you

Second Chorus:

e|--------------------------------------------------------------------------------------------------------|
B|--3--3--3--3--3--3--3--3---3--3--3--3--3--3--3--3---3--3--3--3--3--3--3--3---3--3----3--3---3--3---3--3-|
G|--0--0--0--0--0--0--0--0---0--0--0--0--0--0--0--0---0--0--0--0--0--0--0--0---0--0----2--2---0--0---0--0-|
D|------------------------------------------------------------------------------------0--0----------------|
A|--------------------------3--3--3--3--3--3--3--3--------------------------------------------------3--3--|
E|-0--0--0--0--0--0--0--0----------------------------3--3--3--3--3--3--3--3---0--0-----------3--3---------|

You still make me nervous when you walk in the room
Them butterflies, they come alive when I'm next to you
Over and over, the only truth
Everything comes back to you

[Bridge]

e|---------------------------------------------------------------------------|
B|--3--3--3--3---3--3--3--3---3--3--3--3---3--3--3--3--3--3--3--3------------|
G|--0--0--0--0---0--0--0--0---0--0--0--0---0--0--0--0--0--0--0--0------------|
D|---------------------------------------------------------------------------|
A|----------------------------------------3--3--3--3--3--3--3--3-------------|
E|-0--0--0--0---2--2--2--2---3--3--3--3--------------------------------------|

And I know that it's wrong,
That I can't move on
But it's something about you

[Chorus]

e|--------------------------------------------------------------------------------------------------------|
B|--3--3--3--3--3--3--3--3---3--3--3--3--3--3--3--3---3--3--3--3--3--3--3--3---3--3----3--3---3--3---3--3-|
G|--0--0--0--0--0--0--0--0---0--0--0--0--0--0--0--0---0--0--0--0--0--0--0--0---0--0----2--2---0--0---0--0-|
D|------------------------------------------------------------------------------------0--0----------------|
A|--------------------------3--3--3--3--3--3--3--3--------------------------------------------------3--3--|
E|-0--0--0--0--0--0--0--0----------------------------3--3--3--3--3--3--3--3---0--0-----------3--3---------|

'Cause if the whole world was watching, I'd still dance with you
Drive highways and byways to be there with you
Over and over, the only truth
Everything comes back to you

[Second Chorus:]

e|--------------------------------------------------------------------------------------------------------|
B|--3--3--3--3--3--3--3--3---3--3--3--3--3--3--3--3---3--3--3--3--3--3--3--3---3--3----3--3---3--3---3--3-|
G|--0--0--0--0--0--0--0--0---0--0--0--0--0--0--0--0---0--0--0--0--0--0--0--0---0--0----2--2---0--0---0--0-|
D|------------------------------------------------------------------------------------0--0----------------|
A|--------------------------3--3--3--3--3--3--3--3--------------------------------------------------3--3--|
E|-0--0--0--0--0--0--0--0----------------------------3--3--3--3--3--3--3--3---0--0-----------3--3---------|

You still make me nervous when you walk in the room
Them butterflies, they come alive when I'm next to you
Over and over, the only truth
Everything comes back to you

[Tag]

e|-----------------------------|
B|--3--3----3--3---3--3---3--3-|
G|--0--0----2--2---0--0---0--0-|
D|---------0--0----------------|
A|-----------------------3--3--|
E|-0--0-----------3--3---------|

Everything comes back to you

Hold the C position and switch to the G right before the end of the song
Suggest correction
Give kudos to tab author, rate the tab!
1 2 3 4 5
comments
print report bad tab
guest
You may want to rate the tab now too:
select rating
Wanna post a correction for this tab? Suggest correction