Oops, an error
Loading. Please wait.

This Town Tab

version 4
version 4

Whole song

  • This is the studio version tab with a variation al... Show more
  • Version corrects the previous version's tabs, spec... Show more
  • The chords match the song if you play with it.

Video

280 views 24 this week
1 commentread comment
1 2 3 4 5
x 3
add to favorites
launch autoscroll
font size
0
reset
how to read this tab
guitar tuner
Autoscroll
slow
fast
+/-
esc
set tempo
stop
Help us to improve Ultimate-Guitar.com Take our survey!
×
Author
Difficulty
Capo
intermediate
2nd fret
About this tab version
The chords match the song if you play with it. Was this info helpful? Yes No
Niall Horan - This Town
Capo-2nd Fret
Standard Tuning
| h   Hammer-on



[Intro]

e|----------------------------------------------------|
B|------0-----0-----0-----0-----0-----0-----0-----0---|
G|------0-----0-----0-----0-----0-----0-----0-----0---|
D|----------------------------------------------------|
A|----------------------------------------------------|
E|---3-----3-----3-----3-----3-----3-----3-----3------|



[Verse]

  G
e|----------------------------------------------------|
B|------0-----0-----0-----0-----0-----0-----0-----0---|
G|------0-----0-----0-----0-----0-----0-----0-----0---|
D|----------------------------------------------------|
A|----------------------------------------------------|
E|---3-----3-----3-----3-----3-----3-----3-----3------|

  Em
e|----------------------------------------------------|
B|------0-----0-----0-----0-----0-----0-----0-----0---|
G|------0-----0-----0-----0-----0-----0-----0-----0---|
D|----------------------------------------------------|
A|----------------------------------------------------|
E|---0-----0-----0-----0-----0-----0-----0-----0------|

  C
e|------------------------------------------------------|
B|------0-----0-----0-----0h1-----1-----1-----1-----1---|
G|------0-----0-----0-----0-------0-----0-----0-----0---|   
D|------------------------------------------------------|    (G, Em, C x2)
A|---3-----3-----3-----3-------3-----3-----3-----3------|
E|------------------------------------------------------|

  D
e|------2-----2-----2-----2-----2-----2-----2-----2---|
B|------3-----3-----3-----3-----3-----3-----3-----3---|
G|----------------------------------------------------|
D|---0-----0-----0-----0-----0-----0-----0-----0------|
A|----------------------------------------------------|
E|----------------------------------------------------|



[Pre-Chorus]

  C                             D
e|---------------------------------2-----2-----2-----2---|
B|------1-----1-----1-----1--------3-----3-----3-----3---|
G|------0-----0-----0-----0------------------------------|   
D|------------------------------0-----0-----0-----0------|
A|---3-----3-----3-----3---------------------------------|
E|-------------------------------------------------------|

  G                                 Em
e|----------------------------------------------------------|
B|------0-----0--------0-----0--------0-----0-----0-----0---|
G|------0-----0--------0-----0--------0-----0-----0-----0---|
D|----------------------------------------------------------|     (C, D, G, Em x2)
A|----------------------------------------------------------|
E|---3-----3--------2-----2--------0-----0-----0-----0------|

  C
e|----------------------------------------------------|
B|------1-----1-----1-----1-----1-----1-----1-----1---|
G|------0-----0-----0-----0-----0-----0-----0-----0---|   
D|----------------------------------------------------|
A|---3-----3-----3-----3-----3-----3-----3-----3------|
E|----------------------------------------------------|



[Chorus]

  Em
e|----------------------------------------------------|
B|------0-----0-----0-----0-----0-----0-----0-----0---|
G|------0-----0-----0-----0-----0-----0-----0-----0---|
D|----------------------------------------------------|
A|----------------------------------------------------|
E|---0-----0-----0-----0-----0-----0-----0-----0------|

  C
e|----------------------------------------------------|
B|------0-----0-----0-----0-----0-----0-----0-----0---|
G|------0-----0-----0-----0-----0-----0-----0-----0---|   
D|----------------------------------------------------|
A|---3-----3-----3-----3-----3-----3-----3-----3------|
E|----------------------------------------------------|

  G
e|----------------------------------------------------|
B|------0-----0-----0-----0-----0-----0-----0-----0---|
G|------0-----0-----0-----0-----0-----0-----0-----0---|
D|----------------------------------------------------|
A|----------------------------------------------------|
E|---3-----3-----3-----3-----3-----3-----3-----3------|

  Em                D              G              C
e|---------------------2-----2--------------------------------------------|
B|------0-----0--------3-----3--------0-----0-------1-----1-----1-----1---|
G|------0-----0-----------------------0-----0-------0-----0-----0-----0---|
D|------------------0-----0-----------------------------------------------|
A|------------------------------------------------3-----3-----3-----3-----|
E|---0-----0-----------------------3-----3--------------------------------|

  Em          D        G        G
e|---------------2---------------------------------------------------------------|
B|------0--------3-----0-----------0-----0-----0-----0-----0-----0-----0-----0---|
G|------0--------------0-----------0-----0-----0-----0-----0-----0-----0-----0---|
D|------------0------------------------------------------------------------------|
A|-------------------------------------------------------------------------------|
E|---0--------------------------3-----3-----3-----3-----3-----3-----3-----3------|



[2nd Verse]

  G
e|----------------------------------------------------|
B|------0-----0-----0-----0-----0-----0-----0-----0---|
G|------0-----0-----0-----0-----0-----0-----0-----0---|
D|----------------------------------------------------|
A|----------------------------------------------------|
E|---3-----3-----3-----3-----3-----3-----3-----3------|

  Em
e|----------------------------------------------------|
B|------0-----0-----0-----0-----0-----0-----0-----0---|
G|------0-----0-----0-----0-----0-----0-----0-----0---|
D|----------------------------------------------------|
A|----------------------------------------------------|
E|---0-----0-----0-----0-----0-----0-----0-----0------|

  C
e|------------------------------------------------------|
B|------0-----0-----0-----0h1-----1-----1-----1-----1---|
G|------0-----0-----0-----0-------0-----0-----0-----0---|   
D|------------------------------------------------------|
A|---3-----3-----3-----3-------3-----3-----3-----3------|
E|------------------------------------------------------|

  D
e|------2-----2-----2-----2-----2-----2-----2-----2---|
B|------3-----3-----3-----3-----3-----3-----3-----3---|
G|----------------------------------------------------|
D|---0-----0-----0-----0-----0-----0-----0-----0------|
A|----------------------------------------------------|
E|----------------------------------------------------|



[2nd Pre Chorus]

  C                             D
e|---------------------------------2-----2-----2-----2---|
B|------1-----1-----1-----1--------3-----3-----3-----3---|
G|------0-----0-----0-----0------------------------------|   
D|------------------------------0-----0-----0-----0------|
A|---3-----3-----3-----3---------------------------------|
E|-------------------------------------------------------|

  G                                Em
e|----------------------------------------------------------|
B|------0-----0--------0-----0--------0-----0-----0-----0---|
G|------0-----0--------0-----0--------0-----0-----0-----0---|
D|----------------------------------------------------------|     (C, D, G, Em x2)
A|----------------------------------------------------------|
E|---3-----3--------2-----2--------0-----0-----0-----0------|

  C
e|----------------------------------------------------|
B|------1-----1-----1-----1-----1-----1-----1-----1---|
G|------0-----0-----0-----0-----0-----0-----0-----0---|   
D|----------------------------------------------------|
A|---3-----3-----3-----3-----3-----3-----3-----3------|
E|----------------------------------------------------|



[2nd Chorus]

  Em
e|----------------------------------------------------|
B|------0-----0-----0-----0-----0-----0-----0-----0---|
G|------0-----0-----0-----0-----0-----0-----0-----0---|
D|----------------------------------------------------|
A|----------------------------------------------------|
E|---0-----0-----0-----0-----0-----0-----0-----0------|

  C
e|----------------------------------------------------|
B|------0-----0-----0-----0-----0-----0-----0-----0---|
G|------0-----0-----0-----0-----0-----0-----0-----0---|   
D|----------------------------------------------------|
A|---3-----3-----3-----3-----3-----3-----3-----3------|
E|----------------------------------------------------|

  G
e|----------------------------------------------------|
B|------0-----0-----0-----0-----0-----0-----0-----0---|
G|------0-----0-----0-----0-----0-----0-----0-----0---|
D|----------------------------------------------------|
A|----------------------------------------------------|
E|---3-----3-----3-----3-----3-----3-----3-----3------|

  Em                D              G              C
e|---------------------2-----2--------------------------------------------|
B|------0-----0--------3-----3--------0-----0-------1-----1-----1-----1---|
G|------0-----0-----------------------0-----0-------0-----0-----0-----0---|
D|------------------0-----0-----------------------------------------------|     (Em, C, G, Em, D, G, C x2)
A|------------------------------------------------3-----3-----3-----3-----|
E|---0-----0-----------------------3-----3--------------------------------|

  Em          D        G        G
e|---------------2---------------------------------------------------------------|
B|------0--------3-----0-----------0-----0-----0-----0-----0-----0-----0-----0---|
G|------0--------------0-----------0-----0-----0-----0-----0-----0-----0-----0---|
D|------------0------------------------------------------------------------------|
A|-------------------------------------------------------------------------------|
E|---0--------------------------3-----3-----3-----3-----3-----3-----3-----3------|




[Bridge]
  
   Em                                                      G
e|----------------------------------------------------------------------------------|
B|------3-----3-----3-----3--------3-----3-----3-----3--------3-----3-----3-----3---|
G|------0-----0-----0-----0--------0-----0-----0-----0--------0-----0-----0-----0---|
D|----------------------------------------------------------------------------------|
A|----------------------------------------------------------------------------------|
E|---0-----0-----0-----0--------2-----2-----2-----2--------3-----3-----3-----3------|

   C
e|----------------------------------------------------|
B|------1-----1-----1-----1-----1-----1-----1-----1---|
G|------0-----0-----0-----0-----0-----0-----0-----0---|
D|----------------------------------------------------|
A|---3-----3-----3-----3-----3-----3-----3-----3------|
E|----------------------------------------------------|



[3rd Chorus]

  Em
e|----------------------------------------------------|
B|------0-----0-----0-----0-----0-----0-----0-----0---|
G|------0-----0-----0-----0-----0-----0-----0-----0---|
D|----------------------------------------------------|
A|----------------------------------------------------|
E|---0-----0-----0-----0-----0-----0-----0-----0------|

  C
e|----------------------------------------------------|
B|------0-----0-----0-----0-----0-----0-----0-----0---|
G|------0-----0-----0-----0-----0-----0-----0-----0---|   
D|----------------------------------------------------|
A|---3-----3-----3-----3-----3-----3-----3-----3------|
E|----------------------------------------------------|

  G
e|----------------------------------------------------|
B|------0-----0-----0-----0-----0-----0-----0-----0---|
G|------0-----0-----0-----0-----0-----0-----0-----0---|
D|----------------------------------------------------|
A|----------------------------------------------------|
E|---3-----3-----3-----3-----3-----3-----3-----3------|

  Em                D              G              C
e|---------------------2-----2--------------------------------------------|
B|------0-----0--------3-----3--------0-----0-------1-----1-----1-----1---|
G|------0-----0-----------------------0-----0-------0-----0-----0-----0---|
D|------------------0-----0-----------------------------------------------|     (Em, C, G, Em, D, G, C x2)
A|------------------------------------------------3-----3-----3-----3-----|
E|---0-----0-----------------------3-----3--------------------------------|

  Em          D        G        G
e|---------------2---------------------------------------------------------------|
B|------0--------3-----0-----------0-----0-----0-----0-----0-----0-----0-----0---|
G|------0--------------0-----------0-----0-----0-----0-----0-----0-----0-----0---|
D|------------0------------------------------------------------------------------|
A|-------------------------------------------------------------------------------|
E|---0--------------------------3-----3-----3-----3-----3-----3-----3-----3------|

  Em                D              G              C
e|---------------------2-----2--------------------------------------------|
B|------0-----0--------3-----3--------0-----0-------1-----1-----1-----1---|
G|------0-----0-----------------------0-----0-------0-----0-----0-----0---|
D|------------------0-----0-----------------------------------------------|
A|------------------------------------------------3-----3-----3-----3-----|
E|---0-----0-----------------------3-----3--------------------------------|

  Em          D        G        G                                              G
e|---------------2-------------------------------------------------------------0---|
B|------0--------3-----0-----------0-----0-----0-----0-----0-----0-----0-----0-0---|
G|------0--------------0-----------0-----0-----0-----0-----0-----0-----0-----0-0---|
D|------------0----------------------------------------------------------------0---|
A|-----------------------------------------------------------------------------2---|
E|---0--------------------------3-----3-----3-----3-----3-----3-----3-----3----3---|
 (Listen to song for timing on last note)
Suggest correction
Give kudos to tab author, rate the tab!
1 2 3 4 5
comments
print report bad tab
1 comment total.
0 reply
guitargeek3452 10 Nov 05, 2016 05:17 PM

I love this tab so much!! It matches the song perfectly

guest
You may want to rate the tab now too:
select rating
Wanna post a correction for this tab? Suggest correction