Oops, an error
Loading. Please wait.

Frente A Frente tab

version 2
version 2

Whole song

25 views 1 this week
no commentswrite comment
1 2 3 4 5
3 more votes to show rating
add to favorites
×
Save as Personal and add changes to this tab that will be seen only by you. Learn more ›
×
You can save this tab as Personal to edit and correct it or add notes. All changes will be seen only by you. Learn more »
launch autoscroll
font size
0
reset
how to read this tab
guitar tuner
edit
Autoscroll
slow
fast
+/-
esc
set tempo
stop
Bueno esta es una versión original de la canción, la hice porque las otras
3 transcripciones que vienen en el archivo nomas traen las puras notas,
asi que mientras la sacaba fui haciendo la tablatura para aportarla a la
pagina y quienes busquen esta canción tengan una versión mas completa.
Espero les guste.

INTRO

    Am         Dm         Am         Dm
6|-----------------------------------------------|
5|--0---------------------0----------------------|
4|--2----------0----------2----------0-----------|
3|--2--2-------2--2-------2--2-------2-------2---|
2|--0------1---3------3---0------1---3---------1-|
1|-------0-----1----1----------0-----1-3h1-0-----|

    Am         Dm         Am         Dm
6|-------------------------------------------|
5|--0---------------------0------------------|
4|--2----------0----------2----------0-------|
3|--2--2-------2--2-------2--2-------2-------|
2|--0------1---3--1-------0------1---3-------|
1|-------0-----1---------------0-----1---1---|


VERSO 1

   Am        Dm          Am        Dm
6|------------------------------------------|
5|-0---------------------0------------------|
4|--2--------0------------2--------0--------|
3|-----------2--2---2--------------2--2---2-|
2|-----1-----3---------------1-----3--------|
1|------0----1----1-----------0----1- --1---|

Queda, que poco queda

   G        F        C
6|-3--------1----------------|
5|-------------------3-------|
4|------------3--------------|
3|---0---0--------2----0---0-|
2|-----0--------1--------3---|
1|---------------------------|

De nuestro amor apenas queda nada

   F         Dm/B       E
6|----------------------0----------|
5|-----------2---------------------|
4|-3----------------------2--------|
3|---2---------2---2----------1----|
2|------1--------3----------0------|
1|----0--------------------------0-|

Apenas ni palabras quedan...

   Am        Dm          Am        Dm
6|------------------------------------------|
5|-0---------------------0------------------|
4|--2--------0------------2--------0--------|
3|-----------2--2---2--------------2--2---2-|
2|-----1-----3----------------1----3--------|
1|------0----1----1----------0-----1- --1---|

Queda, solo el silencio

   G        F        C
6|-3--------1----------------|
5|-------------------3-------|
4|------------3--------------|
3|---0---0--------2----0---0-|
2|-----0--------1--------3---|
1|---------------------------|

Que hace estallar la noche fría y larga

   F         Dm/B       E             Am Am/G  F  E  E7  E7sus4
6|----------------------0----------|
5|-----------2---------------------|
4|-3----------------------2--------|
3|---2---------2---2--------1h2----|
2|------1--------3-----------------|
1|----0-------------------------0--|

La noche que no acaba, solo eso queda...


CORO

Am         Am7/G           F
Solo quedan las ganas de llorar
   G                    C       E7sus4  E7
al ver que nuestro amor se aleja,
         Am        Am/G       F
frente a frente, bajamos la mirada,
     G
pues ya no queda nada de que

6|-------------0-----------------------------------------|
5|-3--------------------------------------2----2----2----|
4|---2-----------2--------------------2---2-2----2----2--|
3|-----0-------------1--1-2---1-----1----------1----2----|
2|-----------------0--------0-----0----------------------|
1|-------0----------------------0----------------------0-|

   hablar,     nada...


VERSO 2

   Am        Dm          Am        Dm
6|------------------------------------------|
5|-0---------------------0------------------|
4|--2--------0------------2--------0--------|
3|-----------2----2----------------2--2---2-|
2|-----1-----3--1---1--------1-----3----1---|
1|------0----1----------------0----1--------|

Queda, poca ternura

   G        F        C
6|-3--------1----------------|
5|-------------------3-------|
4|------------3--------------|
3|---0---0--------2----0---0-|
2|-----0--------1--------3---|
1|---------------------------|

Y alguna vez haciendo una locura

   F         Dm/B       E
6|----------------------0----------------|
5|-----------2---------------------------|
4|-3----------------------2--------------|
3|---2---------2---2----------1--1-1---1-|
2|------1--------3----------0----0---0---|
1|----0--------------------------0-------|

Un beso y a la fuerza, queda...

   Am        Dm          Am        Dm
6|------------------------------------------|
5|-0---------------------0------------------|
4|--2--------0------------2--------0--------|
3|-----------2--2---2--------------2--2---2-|
2|-----1-----3----------------1----3--------|
1|------0----1----1----------0-----1- --1---|

Queda, un gesto amable

   G        F        C
6|-3--------1----------------|
5|-------------------3-------|
4|------------3--------------|
3|---0---0--------2----0---0-|
2|-----0--------1--------3---|
1|---------------------------|

Para no hacer la vida insoportable

   F         Dm/B       E             Am Am/G  F  E  E7  E7sus4
6|----------------------0----------|
5|-----------2---------------------|
4|-3----------------------2--------|
3|---2---------2---2--------1h2----|
2|------1--------3-----------------|
1|----0-------------------------0--|

Y así ahogar las penas, solo eso queda...


CORO

Am         Am7/G           F
Solo quedan las ganas de llorar
   G                    C       E7sus4  E7
al ver que nuestro amor se aleja,
         Am        Am/G       F
frente a frente, bajamos la mirada,
     G                       C       E7  E7sus4
pues ya no queda nada de que hablar, nada

Am         Am7/G           F
Solo quedan las ganas de llorar
   G                    C       E7sus4  E7
al ver que nuestro amor se aleja,
         Am        Am/G       F
frente a frente, bajamos la mirada,
     G                       C       E  E7         Am9
pues ya no queda nada de que hablar, nada... queda.


ACORDES

   Dm/B   Am/G   Am7/G   E7   E7sus4   Am9
6|--0------3------3------0------0------x--|
5|--2------0------0------2------2------0--|
4|--0------2------2------0------0------2--|
3|--2------2------0------1------2------3--|
2|--3------1------1------0------0------1--|
1|--1------0------0------0------0------x--|
Suggest correction
Creating personal tab
Creating personal tab
You can edit any tab online and save it as your Personal.

You can edit, replace or remove any tab part or add personal notes – all changes will be seen only by you.

Personal tabs can be accessed anytime from any device, even offline.
Learn more »
Give kudos to tab author, rate the tab!
1 2 3 4 5
comments
print report bad tab
guest
Wanna post a correction for this tab? Suggest correction