Oops, an error
Loading. Please wait.

Si Quieres Decir Adios tab

19 views 1 this week
no commentswrite comment
1 2 3 4 5
3 more votes to show rating
add to favorites
×
Save as Personal and add changes to this tab that will be seen only by you. Learn more ›
×
You can save this tab as Personal to edit and correct it or add notes. All changes will be seen only by you. Learn more »
launch autoscroll
font size
0
reset
how to read this tab
guitar tuner
edit
Autoscroll
slow
fast
+/-
esc
set tempo
stop
BUENO ESTA ES MI VERSIÓN DE ESTA CANCIÓN QUE ESTA BIEN CHIDA, Y COMO SIEMPRE
ES DEDICADA PARA LA PERSONA QUE MAS QUIERO, Y SEGUIRE QUERIENDO POR UN BUEN RATO:
     > STEPHANIE, TE QUIERO CON TODO MI CORAZON e|---------------0-----------2---------------------0------------0--2--3-3--------|
B|-------------0---------2h3--3--------0h2p0---0h2---------1--3-------3-3--------|
G|--1------1h2---------2-------------2-------0--------2----0--0------------------|
A|----2-----------------------------2------------------------------0-------------|
D|--0---2------------2------------0------------------------0---------------------|
E|-------------------------------------------------------------------------------|


e|------3----------2-----------0---3----2------------|
B|------3----------3-----------3---3------3----------|
G|----0---0------2---2-------0---0---0------0--------|
D|-------------0-------------------------------------|
A|-------------------------3-------------------------|
E|--3------------------------------------------------|

    yo no quiero darte mas dolores de cabeza

e|------3----------2-----------0---3----2------------|
B|------3----------3-----------3---3------3----------|
G|----0---0------2---2-------0---0---0------0--------|
D|-------------0-------------------------------------|
A|-------------------------3-------------------------|
E|--3------------------------------------------------|

    ni mirar la cuerda como se tensa

e|------3----------2-----------0---3----2------------|
B|------3----------3-----------3---3------3----------|
G|----0---0------2---2-------0---0---0------0--------|
D|-------------0-------------------------------------|
A|-------------------------3-------------------------|
E|--3------------------------------------------------|

    y ni mucho menos ser tu parte negativa

e|------3----------2-----------0---3-----------------|
B|------3----------3-----------3---3---3-------------|
G|----0---0------2---2-------0---0---0---0-----------|
D|-------------0-------------------------------------|
A|-------------------------3-------------------------|
E|--3------------------------------------------------|

    cuando tu me has dado tanta alegría

e|--------------------2--------------------------------|
B|-----------3--------3--------3---------0-------------|
G|-----------0------2---2------2-------0---0-----------|
D|---------2---2--0----------4---4---------------------|
A|--2-0--------------------2---------------------------|
E|----------------------------------0------------------|

          y no puedo decirte que te vayas o te quedes

e|------0----2---2-------------------------------------|
B|--1-----1----3---3-------3-----------0---------------|
G|--2-2--------------------2---------0---0-------------|
D|-----------0-----------4---4-------------------------|
A|--0------------------2-------2-----------------------|
E|---------------------------------0-------------------|

    pero si te quedas te lo voy a agradecer

e|---------3-----0--------|--------------------------0--0---2--2-----0--0-0----|
B|-------3---3---3--------|------3---3---3----------0--0---3--3------3--3-3----|
G|-----0-------0---0------|------2---2---2---------0--0---2--2-----------------|
D|------------------------|----4---4---4---4------2--2---0--0------------------|
A|--3---------------------|--2-------------------2-----------------3-----------|
E|------------------------|---------------------0------------------------------|

     por que yo no lo sé,      noooooooooooo...     lo que haré


 C9     Em     D        C9
si me faltas tú, lo que haré
            Am    Em F
solo con pensarlo
       D
se me nubla la razón


 G              D        Dsus4  D
si quieres decir adiós
  C9   C9*     Am
dímelo ahora, tal
    D          G
 vez será mejor
              D       Dsus4   D
si ya no nos queda nada
     C9     C9*
por que luchar
     Am      D          E Esus4 E  Bm7  A Asus2 A   e|--------0--2--3------3------|
cuando ya nada será igual                           B|--1--3--------------3-------|
                                                    G|--0--0-------------0--------|
                                                    D|-----------0------0---------|
                                                    A|--0--------------2----------|
                                                    E|----------------3-----------|


(AQUI, EN ESTA PATE ES CASI DAR UN BAJEO Y LUEGO RASGUEAR LAS 4 CUERDAS DE ABAJO)
  -----> NOTA: NO ES ARPEGIADO, ES RASGUEADO e|-------3---3----------2---2---------3---3-------3---3-------------------|
B|------3-3-3-3--------3-3-3-3-------3-3-3-3-----3-3-3-3------------------|
G|-----0---0---0------2---2---2-----0---0---0---0---0---0-----------------|
D|----0-------------0-----------------------------------------------------|
A|--------------------------------3------------3--------------------------|
E|---3--------------------------------------------------------------------|

  Y no quiero causarte más problemas en tu vida

e|-------3---3----------2---2---------3---3-------3---3-------------------|
B|------3-3-3-3--------3-3-3-3-------3-3-3-3-----3-3-3-3------------------|
G|-----0---0---0------2---2---2-----0---0---0---0---0---0-----------------|
D|----0-------------0-----------------------------------------------------|
A|--------------------------------3------------3--------------------------|
E|---3--------------------------------------------------------------------|

   que con los que tienes creo que son suficientes

e|-------3---3----------2---2---------3---3-------3---3-------------------|
B|------3-3-3-3--------3-3-3-3-------3-3-3-3-----3-3-3-3------------------|
G|-----0---0---0------2---2---2-----0---0---0---0---0---0-----------------|
D|----0-------------0-----------------------------------------------------|
A|--------------------------------3------------3--------------------------|
E|---3--------------------------------------------------------------------|

  y por que dejamos que esto se fuera tan lejos

e|-------3---3----------2---2--------3----------------------------|
B|------3-3-3-3--------3-3-3-3------3-3-------3------3------------|
G|-----0---0---0------2---2---2----0---0------0-0----0-0----------|
D|----0-------------0---------------------------------------------|
A|--------------------------------3---------3------2--------------|
E|---3------------------------------------------------------------|

     que se nos escapara de las manos

e|--------0---------2----------2-----------0----------------------|
B|-------1-1-------3-3--------3-3---------0-0---------------------|
G|------2---2-----2---2------2---2-------0---0--------------------|
D|-----2--------0-----------4-----------2-------------------------|
A|---0--------------------2---------------------------------------|
E|------------------------------------0---------------------------|

     y que nos juramos que esto nunca iría a pasar

e|--------0---------2----------2-----------0----------------------|
B|-------1-1-------3-3--------3-3---------0-0---------------------|
G|------2---2-----2---2------2---2-------0---0--------------------|
D|-----2--------0-----------4-----------2-------------------------|
A|---0--------------------2---------------------------------------|
E|------------------------------------0---------------------------|

     pero por mi parte estoy dispuesto a continuar


         C9         C9*      Bm7   Em  D
por que yo no lo sé,     ooooooooooooooo
      C9    C9*
  lo que haré


C9     Em     D        C9
si me faltas tú, lo que haré
            Am    Em
todo se me viene abajo
 F
solo con pensarlo
       D
se me nubla la razoouon


G              D        Dsus4  D
si quieres decir adiós
  C9   C9*     Am
dímelo ahora, tal
    D          G
 vez será mejor
              D       Dsus4   D
si ya no nos queda nada
     C9     C9*
por que luchar
     Am      D          E Esus4 E  Bm7  A Asus2 A   e|--------0--2--3------3------|
cuando ya nada será igual                           B|--1--3----0---------3-------|
                                                    G|--0--0-------------0--------|
                                                    D|-----------0------0---------|
                                                    A|--0--------------2----------|
                                                    E|----------------3-----------|
FINAL:

e|-------------------3----------------------------------|
B|-------------------3-3---0-----------3----------------|
G|-----------------------0------------0-----------------|
D|------------------------------------------------------|
A|-------------------3--------------3-------------------|
E|------------------------------------------------------|

          yo no quiero darte más dolores de cabeza.


ESPERO QUE LES HAYA GUSTADO, NO ES 100% CORRECTA, PERO ES UNA VERSION MUY BUENA,
YO DIRÍA QUE ES UN 94% BUENA, Y EL OTRO 6% SON UNOS ERRORES MUY PEQUEÑOS.
DUDAS O COMENTARIOS; A MI CORREO.

            SALUDOS A AGUASCALIENES, AGS.

            
            
Suggest correction
Creating personal tab
Creating personal tab
You can edit any tab online and save it as your Personal.

You can edit, replace or remove any tab part or add personal notes – all changes will be seen only by you.

Personal tabs can be accessed anytime from any device, even offline.
Learn more »
Give kudos to tab author, rate the tab!
1 2 3 4 5
comments
print report bad tab
guest
Wanna post a correction for this tab? Suggest correction