Oops, an error
Loading. Please wait.

Tan Solo tab

version 4
version 4

Whole song

22 views 1 this week
no commentswrite comment
1 2 3 4 5
3 more votes to show rating
add to favorites
×
Save as Personal and add changes to this tab that will be seen only by you. Learn more ›
×
You can save this tab as Personal to edit and correct it or add notes. All changes will be seen only by you. Learn more »
launch autoscroll
font size
0
reset
how to read this tab
guitar tuner
edit
Autoscroll
slow
fast
+/-
esc
set tempo
stop
hola nuevamente:

Ésta rola de (Dionicio Hinojosa) va dedicada a toda la gente
que directa o indirectamente me animan para hacer esto.
Sé que he estado un poco desconectado del ATAME y a quienes
me escriben en cada actualización diciendo que extrañan mis
garabatos, aquí les dejo una de mis favoritas de Nicho.


ACORDES:

CUERDAS       654321
NOTAS         EADGBe


Cm9           x32430
CMaj9         x34230
C9            X32033 
Bm7           224232
Em            022000
Esus4         022200
E7            020130
Am            002210
Am7           002010
C             332010
D7sus4        000213
G             320033
C/B           022010  
Cmaj7         335453
D7            000212

|------|
|NOTA: |
|---------------------------------------------------------------------------------------------------------------------------|
| v: es arpegio, este símbolo sólo indica que aunque las notas indicadas se tocan al mismo tiempo, deben de tocarse de      |
|forma arpegiada para que no se escuchen todas al mismo tiempo sino en secuencia pero con gran rapidez y encajando          |
|en el mismo tiempo de la melodía. Este efecto se usa mucho en la trova y más en esta canción. Si escuchas la               | 
|canción viendo la tablatura sabrás a lo que me refiero.                                                                    |
|---------------------------------------------------------------------------------------------------------------------------|
|h: es hammer-on y significa literalmente martilleo. La nota que esta antes de la h la tocas poniendo el dedo en el         |
|traste que dice el número antes de la h y la haces vibrar. Luego pones OTRO dedo en la nota del número después de          |
|la h pero NO vuelves a hacer vibrar la cuerda. Entonces como usaste una misma vibración para las dos notas, se             |
|hace un efecto de ligado que se usa mucho en trova.                                                                        |
|---------------------------------------------------------------------------------------------------------------------------|
|[ ]: es hacer un rasgeo asia abajo con la llema del pulgar de la mano derecha.                                             |
|---------------------------------------------------------------------------------------------------------------------------|
| : es hacer un rasgeo hasta que sea cambio de acorde escucha la cancion para que sepas en donde va el cambio             |
|---------------------------------------------------------------------------------------------------------------------------|
|( ): este simbolo, solo indica que es obcional si quieres tocar la nota o no, es un simple arreglo                         |
|---------------------------------------------------------------------------------------------------------------------------|
|*: este signo indica que se debe de hacer un bajeo (al correspondiente con el acorde) con el pulgar                        |
|mientras se sigue rasgueando, es algo dificil pero con practicar seguro que les sale.                                      |
|---------------------------------------------------------------------------------------------------------------------------|
|: este signo sicnifica que apenas y se escucha la nota,escuchen la cancion y sabran alo que me refiero                   |
|---------------------------------------------------------------------------------------------------------------------------|
|p: es pull-off y significa literalmente jalar. Es exactamente lo mismo que la h pero al revés. Puedes notar que el         |
|efecto de ligado de la h siempre va de un numero menor a uno mayor. Pues la p es al revés, va de uno mayor a uno           |
|menor porque cuando haces vibrar la cuerda de la nota del número antes de la p, pones OTRO dedo en la nota del             |
|número depués de la p (si el número es 0 no pones ningun dedo pues es nota abierta) y luego sueltas el primer dedo         |
|pero sin hacer vibrar la cuerda de nuevo. El efecto de ligado es ahora a la inversa.                                       |
|---------------------------------------------------------------------------------------------------------------------------|
|+: este signo sicnifica que tienes que armonisares                                                                         |
----------------------------------------------------------------------------------------------------------------------------|

INTRO:
      Cm9                      Cm9                    
6|--------------------------|-------------------------|E
5|----[3]-------------------|--[3]--------------------|A
4|----[2]-------------------|--[2]--------------------|D
3|----[4]---4----4----4-----|--[4]---4----4----4------|G  
2|----[3]-----3----3--------|--[3]-----3----3---------|B
1|-----------------------0--|---------------------0---|e
      Cm9                      Cm9              
6|--------------------------|----------------------|E
5|----[3]-------------------|---3------------------|A
4|----[2]-------------------|----------------------|D
3|----[4]---4----4----4-----|-------4----4---[4]---|G
2|----[3]-----3----3--------|---3-----3------[3]---|B
1|-----------------------0--|----------------[0]---|e
                                              |
                                              |________________aqui  se rasgea ligeramente.
VERSO:


   Cm9                            Cmaj9          
6|------------------------------|-------------------------------|E
5|-3----------------------------|-3-----------------------------|A
4|------2--------------2--------|------4---------------4--------|D
3|----------4-------4--------4--|----------2-------2------------|G
2|--------------3---------3-----|--------------3-------------3--|B
1|------------------------------|-------------------------0-----|e
   Salgo a caminar,               me detengo un instante

   Bm7                            Em                 Em7
6|------------------------------|-0----------------------------|E
5|-2----------------------------|----2-------------------------|A
4|------4--------------4--------|--------2---------------------|D
3|----------2-------2-----------|----0---0------------0--------|G
2|--------------3------------3--|--------0---0-----0-------3---|B
1|------------------------2-----|---------------0-------0------|e
   miro hacia atrás               para verte venir 

      Am  C/B   C      D7sus4
6|----------------------------------------|E
5|----0----2----3-------------------------|A
4|---------------------0------------------|D
3|-----v2---v0---v0-0----2---2---------|G
2|-----v1---v1---v1--------1--------1-----|B
1|----------------------------(0h)3-------|e
  y me encuentro taannn solo.


VERSO:


   Cm9                            Cmaj9
6|------------------------------|-------------------------------|E
5|-3----------------------------|-3-----------------------------|A
4|------2--------------2--------|------4---------------4--------|D
3|----------4-------4-----------|----------2-------2------------|G
2|--------------3------------3--|--------------3-------------3--|B
1|------------------------0-----|-------------------------0-----|e
   Alguna vez has                 estado en el cielo 

  Bm7                             Em
6|------------------------------|-0--------------------|E
5|-2----------------------------|----2-----------------|A
4|------4--------------4--------|-------2--------------|D
3|----------2-------2--------2--|----------------------|G
2|--------------3---------3-----|------------3p0-----0-|B
1|------------------------------|------------------0---|e
   alguna vez has                 sentido el amor

      Am  C/B   C      D7sus4
6|-----------------------------------------------|E
5|----0----2----3--------------------------------|A
4|------2----2----------0------------------------|D
3|------2----0----0-0------2---2--------2--------|G
2|------1----1-----1---------1--------1-------|B
1|----------------------------------3---------|e
  y me encuentro taannn solo.


CORO:


  *Cmaj7                  C9       (Cm9-Cmaj9 Em
6|-0--------------------|E
5|----2-----------------|A
4|-------2--------------|D
3|----------------------|G
2|------------3p0---0---|B
1|------------------0---|e
legando a tu lado 

    Am  C/B   C      D7sus4
6|-------------------------------------|E
5|----0----2----3----------------------|A
4|------2----2---------0---------------|D
3|------2----0----0-0----2---2---------|G
2|------1----1----1--------1-------1---|B
1|------------------------------3------|e
  y me encuentro taannn solo.


PUENTE:

    Cm9                    Cm9
6|----------------------|----------------------|E
5|---3------------------|---3------------------|A
4|----------------------|----------------------|D
3|------4---4----4------|------4---4----4------|G   
2|--------3----3--------|---3----3----3--------|B
1|-------------------0--|-------------------0--|e

    Cm9                    Cm9
6|----------------------|-------------------|E
5|---3------------------|---3---------------|A
4|----------------------|-------------------|D
3|------4---4----4------|------4---4---[4]--|G
2|---3----3----3--------|---3----3-----[3]--|B
1|-------------------0--|--------------[0]--|e
                                        |
                                        |__________________________________aqui se rasgea ligeramente.
VERSO:

   Cm9                            Cmaj9
6|------------------------------|-------------------------------|E
5|-3----------------------------|-3-----------------------------|A
4|------2--------------2--------|------4---------------4--------|D
3|----------4-------4-----------|----------2-------2------------|G
2|--------------3------------3--|--------------3-------------3--|B
1|------------------------0-----|-------------------------0-----|e
Salgo a caminar                   tu sonrisa en mi cara

  Bm7                             Em
6|------------------------------|----0------------------------|E
5|-2----------------------------|-------2---------------------|A
4|------4--------------4--------|-----------2------------------|D
3|----------2-------2--------2--|---------------5---3---------|G
2|--------------3---------3-----|-----------------------------|B
1|------------------------------|-----------------------------|e
   es una sádica figura          que me atrapa al partir

    Am  C/B   C      D7sus4
6|-----------------------------------------|E
5|----0----2----3--------------------------|A
4|------2----2---------0-------------------|D
3|------2----0----0-0----2---2--------2----|G
2|------1----1----1--------1--------1----1-|B
1|--------------------------------3------3-|e
  y me encuentro taannn solo.


 *Cmaj7                  C9        (Cm9-Cmaj9 Em
6|-0-------------------|E
5|----2----0--0--------|A
4|---------------------|D
3|---------5--3---0----|G
2|---------------------|B
1|---------------------|e
llegando a tu lado 

    Am  C/B   C               D7sus4
6|----------------------3----X---|E
5|----0----2----3-------3----0---|A
4|------2----2----------2----0---|D
3|------2----0----0-0---0----2---|G
2|------1----1----1-----1----1---|B
1|----------------------0----3---|e
  y me encuentro taannn solo.


  Cmaj7                C9
alguna vez has amado despacio,
 Bm7                     Em
alguna vez entregaste tu piel

   Am  C/B   C               D7sus4
6|----------------------3----X---|E
5|----0----2----3-------3----0---|A
4|------2----2----------2--0-0---|D
3|------2----0----0-0---0----2---|G
2|------1----1----1-----1----1---|B
1|----------------------0----3---|e       
y me encuentro tan solo,

    Em                Esus E7    
y me encuentro tan solo,

   Amm    Am7     D7sus4-D7
6|--------------------------|E
5|--------------------------|A
4|-2-------------0----------|D
3|---2-------0-----2--------|G
2|-----1---1---------1------|B
1|-------0-------------3p2--|e        
y me encuentro tan solo,

 
+++++++++++++++++++++++++++++++++++++++++++++++++ 
  Cm9                    Cm9
6|----------------------|----------------------|E
5|---3------------------|---3------------------|A
4|----------------------|----------------------|D
3|------4---4----4------|------4---4----4------|G   
2|---3----3----3--------|---3----3----3--------|B
1|-------------------0--|-------------------0--|e
  sin tiii.........i.........i...........i......

++++++++++++++++++++++++++++++++++++++++++
    Cm9                    Cm9
6|----------------------|----------------|E
5|---3------------------|---3------------|A
4|----------------------|----------------|D
3|------4---4----4------|------4---4-----|G
2|---3----3----3--------|---3----3-------|B
1|-------------------0--|----------------|e 
  i..........i.........i..........i.......

final:

+++++++++++++++++++++++++++++++
   Cm9         G
6|-----------|-3--------[3]--|E
5|-3-----3-0-|-0h2------[2]--|A
4|-0h2---2-0-|----------[0]--|D
3|-----------|------0---[0]--|G
2|-----------|------3---[3]--|B
1|-----------|----------[3]--|e


------------------------------------|
                                    |
6|----------------3h5h3----[3]--|E  |------------------------------------------------------------------|
5|---------2h3h2-----------[2]--|A  |                                                                  |
4|--0h2h0------------------[0]--|D  |------------------------------------|----------------------------------------|
                                                                             |
En el acorde Bm7 lleva un pequeño arreglo que es: E |-2--|                   |
                                                  B |-2h3|                   |
                                                  G |-2--|solo en los coros: |
                                                  D |-4--|                   |
                                                  A |-2--|                   |
                                                  E |-2--|                   |
                                                                             |
-----------------------------------------------------------------------------|


|-----------|
|COMENTARIO:|
|---------------------------------------------------------------------------------------------------------------------------|
|Sinceramente, creo que este TAB es lo más cercano a la canción ORIGINAL (no la canción en vivo),                           |
|pero creo que ya ni el mismo NICHO HINOJOSA la toca así pues le va poniendo y quitando arreglos mas que nada esta es mi    |
|interpretacion y no se escucha tan mal y vale la pena sacarla en guitarra,                                                 |
|creo que será de utilidad para que muchas personas, puedan practicar y aprender guitarra , o refinar sus errores           |
|(o los míos) a los que ya la aprendieron.                                                                                  |
|---------------------------------------------------------------------------------------------------------------------------|
|Por favor nadie dude en escribirme si tiene alguna duda, queja, comentario o sugerencia.                                   |
|---------------------------------------------------------------------------------------------------------------------------|
|Si les gusto mi interpretacion y mi trabajo, y quieren otro TAB como este de otra cancion, mandame una peticion a mi mail  |
|y con mucho gusto la cargo en el ATAME.                                                                                    |
|---------------------------------------------------------------------------------------------------------------------------|

                                               -/-/-/- VIVA LA TROVA -/-/-/-

            
            
Suggest correction
Creating personal tab
Creating personal tab
You can edit any tab online and save it as your Personal.

You can edit, replace or remove any tab part or add personal notes – all changes will be seen only by you.

Personal tabs can be accessed anytime from any device, even offline.
Learn more »
Give kudos to tab author, rate the tab!
1 2 3 4 5
comments
print report bad tab
guest
Wanna post a correction for this tab? Suggest correction