Oops, an error
Loading. Please wait.

Te Perdono tab

22 views 1 this week
no commentswrite comment
1 2 3 4 5
3 more votes to show rating
add to favorites
×
Save as Personal and add changes to this tab that will be seen only by you. Learn more ›
×
You can save this tab as Personal to edit and correct it or add notes. All changes will be seen only by you. Learn more »
launch autoscroll
font size
0
reset
how to read this tab
guitar tuner
edit
Autoscroll
slow
fast
+/-
esc
set tempo
stop
Aqui les va la rola mas llegadora de este disco 
que a muchos nos queda, pero ni hablar espero que les guste
la saque 100% a oido y dice así para todos ustedes.

Intro:      

D                        A#            A7

e|--------2h3p2------0-|-----1----|-----------0-|
b|------3------3-----0-|------3---|--2--2-2/3---|
g|----2---------2------|---3---3--|-------------|
D|--0----------------0-|--3-------|-------------|
A|---------------------|-1--------|--0----------|
E|---------------------|----------|-------------|

e|--------2h3p2------0-|-----1----|-----------0-|
b|------3------3-----0-|------3---|--2----2/3---|
g|----2---------2------|---3---3--|-------------|
D|--0----------------0-|--3-------|-------------|
A|---------------------|-1--------|--0----------|
E|---------------------|----------|-------------|

e|-------2-----0-|---------2------0-|
b|-------3-----3-|-3-------3------3-|
g|----2----------|--2---------------|
D|--0--------0---|-------2----------|
A|---------------|-----0--------0---|
E|---------------|------------------| (Hasta aquí el intro)

e|-------2-----0-|---------2------0-|
b|-------3-----3-|-3-------3------3-|
g|----2----------|--2---------------|   (D, D2)
D|--0--------0---|-------2----------|
A|---------------|-----0--------0---|
E|---------------|------------------|
      Te perdono         el montón de palabras
            A#                                  A7
e|------1---1---------------------------------------0-----|
b|-------3--3--------------------------------2---2/3------|
g|----------3---------------------------------------------|
D|---3------3--------------------------------2------------|
A|--1-------1---------------------------------------------|
E|--------------------------------------------------------|
Que has soplado a mi oído             desde que te conozco

e|-------2-----0-|---------2------0-|
b|-------3-----3-|-3-------3------3-|
g|----2----------|--2---------------|
D|--0--------0---|-------2----------|   (D, D2)
A|---------------|-----0--------0---|
E|---------------|------------------|
   Te perdono          tus fotos y tus gatos

         A#                        A7              D
e|------1---1--------------------------------0------0------2|
b|-------3--3--------------------------------2------0-----3-|
g|----------3--------------------------------------------2--|
D|---3------3-------------------------------------------0---|
A|--1-------1------------------------------0------0----0----|
E|----------------------------------------------------------|
    Tus comidas afuera                  cervezas y cigarros

                                    (Hasta aquí la parte arpegiada)

Es mas...

       D   D2       D        D2
Te perdono, andar como tu andas
     A#               A7                D  Am7 
Tus zapatos de nube, tus dientes y tu pelo

 G                     F#
Te perdono los cientos de razones,
 Bm7        A#(Va arpegiado)        D                     
Los miles de problemas, en fin, te perdono no amarme..
                G
Lo que no te perdono,
            F#7                  Bm7  Gm           D
Es haberme besado con tanta alevosía, tengo testigos
   Em    A7        D             Am7 D7
Un perro, la madrugada y el frió
      G      A7          D
Y eso si que no te lo perdono,
     Bm          Em         A7                 
Pues si te lo perdono, de seguro que... 
     D            D2         A#       A7
e|----2h3p2--------0----|-----1----------0--|
b|---3------3-----3--3--|------3--------2-2-|
g|--2--------2---2----2-|---3---3------0---0|
D|-0------------0------0|--3-----3----2-----|
A|----------------------|-1----------0------|
E|----------------------|-------------------|
         Lo olvido
      D          D2       A#   A7   D    Am7   D7
e|----2h3p2--------0----|-1----0----2----0-----2--|
b|---3------3-----3-3---|-3----2----3----1-----1--|
g|--2--------2---2----2-|-3----0----2----2-----2--|
D|-0------------0------0|-3----2----0----0-----0--|
A|----------------------|-1----0----0----0-----0--|
E|----------------------|-------------------------|

                G
Lo que no te perdono,
            F#7                  Bm7  Gm           D
Es haberme besado con tanta alevosía, tengo testigos
   Em    A7        D             Am7 D7
Un perro, la madrugada y el frió
      G      A7          D
Y eso si que no te lo perdono,
     Bm          Em         A7       Am7     D7 
Pues si te lo perdono, de seguro que lo olvido
      G      A7          D
Y eso si que no te lo perdono,
Bm          Em         
Pues si te lo perdono, de seguro que... lo olvido


El final va así:

      D          D2       A#    A7(X2)     D
e|----2h3p2--------0----|--------------2---2-|
b|---3------3-----3-3---|-----3--2-2/3-3---3-|
g|--2--------2---2----2-|---3--------------2-|
D|-0------------0------0|--3-----2-2/3-----0-|
A|----------------------|-1----------------0-|
E|----------------------|--------------------|

Esta es mi version, con respecto a la nota (D2)
la verdad no se cual sea por eso la nombre así,
espero comentarios y dudas al mail que ya conocen.

Mayra esta tambien es para ti, ya que te perdono los 
cientos de razones, los miles de problemas, en fin...
se que saldremos adelante es cuestion de hecharle ganas
y con esto te quiero decir Mayra Patricia Cortes
Te amo, y antes de hacer las cosas ya te perdone
y esta la saque por que se que fue la que mas te gusto 
aquella vez. ¿Recueras?
 Te amo.

Y ustedes disculpen todo este choro 
pero creo que sabran entender a un hombre
completamente enamorado.

Escribanme =)

            
            
Suggest correction
Creating personal tab
Creating personal tab
You can edit any tab online and save it as your Personal.

You can edit, replace or remove any tab part or add personal notes – all changes will be seen only by you.

Personal tabs can be accessed anytime from any device, even offline.
Learn more »
Give kudos to tab author, rate the tab!
1 2 3 4 5
comments
print report bad tab
guest
Wanna post a correction for this tab? Suggest correction