Oops, an error
Loading. Please wait.

When Ginny Kissed Harry tab

version 2
version 2

Whole song

Interactive

580 views 9 this week
no commentswrite comment
1 2 3 4 5
3 more votes to show rating
add to favorites
×
Save as Personal and add changes to this tab that will be seen only by you. Learn more ›
×
You can save this tab as Personal to edit and correct it or add notes. All changes will be seen only by you. Learn more »
launch autoscroll
font size
0
reset
how to read this tab
guitar tuner
edit
Autoscroll
slow
fast
+/-
esc
set tempo
stop
I basically took another tab I found on this website but wanted to play it on DADGAD so
I edited if for myself and thought I'd share the result for any other DADGAD player out there.

Once again: DADGAD TUNING!!!

Verse

D|--9--------9--------7--------7--------5--4--2--5--4--2---------------------|
A|-----10-------10-------9--------9-----------------------2------------------|
G|--------7--------7--------7--------7---------------------------------------|
D|--------------------------------------------------------2--------2---------|
A|--------------------------------------------------------------2--------2---|
D|--2-----------------2-----------------2------------------------------------|
                                                                                 x2
D|--------2--4--2-----------2--5--4--2--5--4--2--5--4--2--9------------------|
A|--2--5-----------5--3--5-----------------------------------------2---------|
G|--------------------------------------------------------------0--------0---|
D|---------------------------------------------------------------------------|
A|--2-----------------3------------------------------------------------------|
D|--------------------------------------2-----------------2------------------|


Chorus

D|--5--2-----5--2-----5--2-----5--2-----5--4--2--5--4--2---------------------|
A|--------------------------3--------3--2-----------------2------------------|
G|--------2--------2-----------------------------------------------0---------|
D|---------------------------------------------------------------------------|
A|--0-----------------3-----------------------------------------2--------2---|
D|-----------------------------4--------2------------------------------------|

D|--5--2-----5--2-----5--2-----5--2-----5--4--2--5--4--2--9------------------|
A|--------------------------2--------3--2--------------------------2---------|
G|--------2--------2--------------------------------------------0--------0---|
D|---------------------------------------------------------------------------|
A|--0-----------------3------------------------------------------------------|
D|-----------------------------4--------2-----------------2------------------|

D|--5--2-----5--2-----5--2-----5--2-----5--4--2--5--4--2---------------------|
A|--------------------------3--------3--2-----------------2------------------|
G|--------2--------2--------------------------------------0------------------|
D|---------------------------------------------------------------------------|
A|--0-----------------3------------------------------------------------------|
D|-----------------------------4--------2------------------------------------|


Bridge

D|---------------------------------------------------------------------------|
A|-----------2--3--------------2--3------------------------------------------|
G|-----------0-----------------0--------2-----------------4------------------|
D|---------------------------------------------------------------------------|
A|--------2--------2--------2--------2---------------------------------------|
D|--2-----------------2------------------------------------------------------|

D|--------------------------------------|
A|--------------------------------------|
G|--5----------------7------------------|
D|--------------------------------------|
A|--------------------------------------|
D|--------------------------------------|


Verse 2

D|--9--------9--------9--------9--------5--4--2--5--4--2---------------------|
A|-----10-------10-------9--------9-----------------------2--------2---------|
G|--------7--------7--------------------------------------------0--------0---|
D|-(5)---------------(4)---9--------9--(2)----------------2--------2-----0---|
A|--------------------------------------------------------------2------------|
D|--2-----------------2-----------------2------------------------------------|

D|--------2--4--2--------2--4--5--4--2--5--4--2--5--4--2--9------------------|
A|--2--5-----------5--3--------------------------------------------10--------|
G|---------------------------------------------------------------------------|
D|---------------------------------------------------------------------------|
A|--2-----------------3------------------------------------------------------|
D|--------------------------------------2------------------------------------|

D|--9--------9--------7--------7--------5--4-----5--4------------------------|
A|-----10-------10-------9--------9-----------2--------2--2------------------|
G|--------7--------7--------7--------7---------------------------------------|
D|-(5)---------------(4)---------------(2)----------------2--------2---------|
A|--------------------------------------------------------------2--------2---|
D|--2-----------------2-----------------2------------------------------------|

D|--------2--4--2-----------2--5--4--2--5--4--2--5--4--2--9------------------|
A|--2--5-----------5--3--5---------------------------------------------------|
G|-----------------------------------------------------------------0---------|
D|--------------------------------------------------------------2--------2---|
A|--2-----------------3------------------------------------------------------|
D|--------------------------------------2------------------------------------|


Chorus 2

D|--5--2-----5--2-----5--2-----5--2-----5--4--2--5--4--2--9------------------|
A|--------------------------3-----------2-----------------7------------------|
G|--------2--------2-----------------2-----------------------------4---------|
D|---------------------------------------------------------------------------|
A|--0-----------------3------------------------------------------------------|
D|-----------------------------4--------2------------------------------------|

D|---------------------------------------------------------------------------|
A|--7-----------------7------------------------------------------------------|
G|--5-----------------7------------------------------------------------------|
D|---------------------------------------------------------------------------|
A|---------------------------------------------------------------------------|
D|---------------------------------------------------------------------------|

D|--5--2-----5--2-----5--2--2--5--2-----5--4--2--5--4--2---------------------|
A|--7--2--------------5--2--3--------3--2--------2--------2------------------|
G|--------2--------2---------------------------------------------------------|
D|-----------------------------------------------------------------2---------|
A|--0-----------------3-----------------------------------------2--------2---|
D|--------------------------------------2-----------------2------------------|

D|--5--2-----5--2-----5--2-----5--2-----2------------------------------------|
A|--------------------------3--------3---------------------------------------|
G|--------2--------2-----------------------------0--------0--------0---------|
D|-----------------------------0---------------------------------------------|
A|--0-----------------3-----------------------2--------2--------2--------2---|
A|---------------------------------------------------------------------------|

D|---------------------------------------------------------------------------|
A|---------------------------------------------------------------------------|
G|--2-----------------4------------------------------------------------------|
D|---------------------------------------------------------------------------|
A|---------------------------------------------------------------------------|
D|---------------------------------------------------------------------------|


Note:
 - The numbers in brackets are notes that can be played too but are optional

            
            
Suggest correction
Creating personal tab
Creating personal tab
You can edit any tab online and save it as your Personal.

You can edit, replace or remove any tab part or add personal notes – all changes will be seen only by you.

Personal tabs can be accessed anytime from any device, even offline.
Learn more »
Give kudos to tab author, rate the tab!
1 2 3 4 5
comments
print report bad tab
guest
You may want to rate the tab now too:
select rating
Wanna post a correction for this tab? Suggest correction