Oops, an error
Loading. Please wait.

Jubilee Street Tab

37,609 views 105 this week
6 commentsread comments
1 2 3 4 5
excellent!
x 21
add to favorites
launch autoscroll
font size
0
reset
how to read this tab
guitar tuner
Tab Pro tools
  • play this tab
  • loop segment
  • change instrument
  • show fretboard
  • metronome
×
Best way to learn
"Jubilee Street"
Autoscroll
slow
fast
+/-
esc
set tempo
stop
Difficulty
intermediate
Nick Cave & The Bad Seeds

Jubilee Street

e-----------------------------------------------------------------------------------------|
B-----------------------------------------------------------------------------------------|
G------5---5-3---3-----------10----10-----------------8-8\--5--5--5-------5-----5---------|
D----3---3-----3----------10----10----10---10-\----8--8-8\--5-------5---5---5-----5---5---|
A-------------------3/8-8----------------8----\--6----------3---------3-------3-----3-----|
E--4--------------------------------------------------------------------------------------|


Really straight forward song, just this riff repeated for 6 minutes.
Towards the end of the song the D# and C chords are strummed more
than picked, but just listen to the song to get the hang of it.

Also I'm not a great tabber, i was just playing around on this song and couldn't
find a tab out there for it yet so decided to share my interpretation

Cheers,

Rob
comments
print report bad tab
6 comments total. Showing first comments.
+2 reply
ELIASM wrote on March 15 2013, 01:35 pm

Hi rob,
Love your tab. The only modification I would suggest is going up a fifth the initial G# to a D# instead of that. So, in my opinion it would look like this:

e------------------
B------------------
G------5---5-3-----
D------------------
A----6---6-----3--> and then it slides from this C to the F and so on.
E--4---------------

maybe with a capo on the first fret the first chord can be arpeggiated easily. Maybe something like this:

[CAPO on 1st fret]
f--------------------
C------0---0---------
G#-----------2~------
D#---0---0-----------
A#--------------3/- and so on.
F--3----------------

But I'm sure that's not how they actually play it.

Anyway, nevermind...

0 reply
dino.beaton wrote on April 18 2013, 03:21 pm

if possible can you put this intruction under the chords category. I am dying to learn how to play this but i do not know how to read tabs.

+1 reply
tokimasa wrote on May 3 2013, 11:56 am

http://www.musicnotes.com/sheetmusic/scorchVPE.asp?ppn=SC0256114

According to that, the chords are Ab, F5, Eb5, and C5. If you're rather play full chords instead of the power chords, then they are Ab, Fm, Eb, and Cm. 1 measure on each of Ab and Fm, two beats (half measure) on Eb, then two measures on Cm.

Trying to decide if this is Ab major or F minor, but leaning towards the latter.

Cool song, glad to see it tabbed.

I want to post or [tab]
guest
You may want to rate the tab now too:
select rating
Please do not post tabs as comments. Select "correction" instead!