Oops, an error
Loading. Please wait.

Your Funeral My Trial chords

version 3
version 3

Whole song

455 views 3 this week
no commentswrite comment
1 2 3 4 5
3 more votes to show rating
add to favorites
×
Save as Personal and add changes to this tab that will be seen only by you. Learn more ›
×
You can save this tab as Personal to edit and correct it or add notes. All changes will be seen only by you. Learn more »
launch autoscroll
font size
0
reset
transpose
0
reset
simplify chords
display chords
guitar tuner
edit
Autoscroll
slow
fast
+/-
esc
set tempo
stop
Author
Difficulty
Strumming
There is no strumming pattern for this song yet. and get +5 IQ
∣-----------------------------------∣
∣      Your Funeral, My Trial       ∣
∣    by Nick Cave & The Bad Seeds   ∣
∣-----------------------------------∣


  Fmaj7  Am6    G7   Em6   Em7
e|--0-----1-----1-----0-----0-----|
B|--1-----1-----0-----1-----3-----|
G|--2-----2-----0-----0-----0-----|
D|--3-----2-----0-----2-----2-----|
A|--x-----0-----2-----2-----2-----|
E|--x-----x-----3-----0-----0-----|


[Intro 1]

e|--13-12---------------13-12-----------------------10-13-12-----|
B|--------13-10-13-10---------13-10-13-10---12--12---------------|
G|--------------------------------------------12-----------------|
D|---------------------------------------------------------------|
A|---------------------------------------------------------------|
E|---------------------------------------------------------------|


[Intro 2]

F  Fmaj7    Am    Am6  Fmaj7    Am
G            G        G7


[Verse 1]

Fmaj7     Am
   I am a crooked man
         Fmaj7            Am
And I've walked a crook - ed mile
Em                   Em6
Night, the shameless widow
Em7         Am    G Am   Dm
Doffed her weeds, in a   pile
    Am    Dm   G
The stars all  winked at me
     Am     Dm  G
They shamed a   child
              G7 Fmaj7   G Fmaj7 G
Your funeral, my trial


[Verse 2]

G7  Fmaj7          Am
One thousand Marys lured me
     Fmaj7            Am
Into gulleys damp with clover
Em                Em6  Em7
Bird with crooked wing cast
  Am G      Am     Dm
Its  wicked shadow over
  Em    Dm  G
A bau - ble moon did mock
     Am    Dm  G
And trin - ket stars did smile
              G7  Fmaj7
Your funeral, my trial

            
            
Suggest correction
Creating personal tab
Creating personal tab
You can edit any tab online and save it as your Personal.

You can edit, replace or remove any tab part or add personal notes – all changes will be seen only by you.

Personal tabs can be accessed anytime from any device, even offline.
Learn more »
Give kudos to tab author, rate the tab!
1 2 3 4 5
comments
print report bad tab
guest
You may want to rate the tab now too:
select rating
Wanna post a correction for this tab? Suggest correction