Oops, an error
Loading. Please wait.

At The Chime Of A City Clock Tab

version 2
version 2

Whole song

2,736 views 3 this week
3 commentsread comments
1 2 3 4 5
2 more votes to show rating
add to favorites
launch autoscroll
font size
0
reset
how to read this tab
guitar tuner
×
Best way to learn
"At The Chime Of A City Clock"
Autoscroll
slow
fast
+/-
esc
set tempo
stop
Author
Difficulty
  follow
intermediate
nick drake - at the chime of a city clock

Tuning: EADGBE*  
maybe a capo on this one?
play the cd...

main riff
          C/G            B/Gb          Bb/F          A/E    rpt         
e|-------------------------------------------------------------|
B|--------8-8-8----------7-7-7---------6-6-6---------5-5-5-----|
G|--------5-5-5----------4-4-4---------3-3-3---------2-2-2-----|
D|--------5-5-5----------4-4-4---------3-3-3---------2-2-2-----|
A|-----0-0---0-------0-0----0------0-0----0------0-0----0------|
E|-------------------------------------------------------------|

pre-chorus
         C/G          Am/F           C/G         Bm7    E    x2         
e|-------------------------------------------------------------|
B|-------1--1--1------1--1--1--------1--1--1-----3-3-0--0------|
G|-------0--0--0------2--2--2--------0--0--0-----2-2-0--1------|
D|-------2-----2------2-----2--------2-----2-----4-4-0--2------|
A|-------3-----3------0-----0--------3-----3-----2-2----2------|
E|----3-3----3-----1-1----1-------3-3----3--------------0------|

chorus
         A             A/Ab          A/G           A/Gb     rpt   
e|-------------------------------------------------------------|
B|-----------5---5---------5---5---------5---5---------5---5---|
G|--------6---6-6-------6---6-6-------6---6-6-------6---6-6----|
D|-------7-7---7-------6-6---6-------5-5---5-------4-4---4-----|
A|----0-0-----------0-0-----------0-0-----------0-0------------|
E|-------------------------------------------------------------|

* just feep pumpin the pedal (doubled) bass note..

* theres also deadened string chops between the chords, you'll
get it down by jammin to the track..

cant find the book, so chord names probably wrong,
will maybe update it at some point,

but anyways, this is more or less it...

thats all folks!!


Suggest correction
Give kudos to tab author, rate the tab!
1 2 3 4 5
comments
print report bad tab
3 comments total.
0 reply
zandrewcoleman 10 Feb 13, 2017 12:45 AM

good tab.
I was playing around with it. maybe the 7 at the start?
|-------------------------------------------------------------|
B|--------8-8-8----------7-7-7---------6-6-6---------5-5-5-----|
G|--------5-5-5----------4-4-4---------3-3-3---------2-2-2-----|
D|--------7-7-7----------7-7-7---------3-3-3---------2-2-2-----|
A|-----0-0---0-------0-0----0------0-0----0------0-0----0------|
E|-------------------------------------------------------------|

0 reply
zandrewcoleman 10 Feb 13, 2017 04:52 PM

and after playing with the song i think the chorus is

e|-------------------------------------------------------------|
B|-----------5---5---------5---5---------5---5---------2---2---|
G|--------6---6-6-------6---6-6-------6---6-6-------2---2-2----|
D|-------7-7---7-------5-5---5-------4-4---4-------2-2---2-----|
A|----0-0-----------0-0-----------0-0-----------0-0------------|
E|-------------------------------------------------------------|

0 reply
zandrewcoleman 10 Feb 13, 2017 04:53 PM

tune down half step

guest
You may want to rate the tab now too:
select rating
Wanna post a correction for this tab? Suggest correction