Oops, an error
Loading. Please wait.

Black Eyed Dog Tab

version 1
version 1

Whole song

24,085 views 24 this week
1 commentread comment
1 2 3 4 5
x 15
add to favorites
launch autoscroll
font size
0
reset
how to read this tab
guitar tuner
Autoscroll
slow
fast
+/-
esc
set tempo
stop
Help us to improve Ultimate-Guitar.com Take our survey!
×
Capo
3rd fret
Tuning: standard, capo 3rd fret

e|----------------------------------------|
B|----------------------------------------|
G|----------------------------------------|  (repeat)
D|-----------7-6-7-9------------7-6-------|
A|--7-7-----------------7-7-----------6-7-|
E|------<7>-----------------<7>-----0-----|

e|---------------------------------------------------------------------------|
B|---------------------------------------------------------------------------|
G|--------rhythm sound begins------------------------------------------------|
D|-------------------------------------7-6-7-9-9--------------7-7-7-6--------|
A|-7-7---------7-7--------7-7-------------------------7-7---------------6-7--|
E|-----<7>---------<7>--------<7>-------------------------<7>---------0------|
                      Black eyed dog
                              he called at my door
[Main pattern]
e|-------------------------------------------------------------|
B|-------------------------------------------------------------|
G|-------------------------------------------------------------|
D|--------------7-6-7-9-9-----------------7-7-7-6--------------|
A|-7-7---------------------------7-7-----------------6-7---(7)-|
E|-----<7>---------------------------<7>-----------0-----------|

The black eyed dog
            he called for more
A black eyed dog he knew my name   (repeat main pattern for each line)
A black eyed dog he knew my name
A black eyed dog
A black eyed dog
I'm growing old and I wanna go home, I'm growing old and I don't wanna know
I'm growing old and I wanna go home

e|----------------------------------------------|
B|----------------------------------------------|
G|----------------------------------------------|
D|-----12-11-9-7-6-7-9-9---------7-6------------| (rpt w/ booming bass note)
A|-7-7-------------------7-7-----------6-7-7----|
E|-----------(0)-------------<7>-----0----------|
          (bass note second time only)

e|------------------------------------------------|
B|------------------------------------------------|
G|------------------------------------------------|
D|---2s1-1s2-2s4-4s2-2s1-1s2----6s4-4s6s7-7s4-4s6-|  (repeat)
A|------------------------------------------------|
E|-0--------------------------0-------------------|

e|---------------------------------------------------|
B|---------------------------------------------------|
G|---------------------------------------------------| (repeat)
D|---9-0-7-0-6-0-4-0-2------2s1-1s2-2s4-4s2-2s1-1s2--|
A|---------------------------------------------------|
E|-0----------------------0--------------------------|

e|------------------------------------------------|
B|------------------------------------------------|
G|------------------------------------------------|
D|---2s1-1s2-2s4-4s2-2s1-1s2----6s4-4s6s7-7s4-4s6-|  
A|------------------------------------------------|
E|-0--------------------------0-------------------|

e|---------------------------------------------------|
B|---------------------------------------------------|
G|---------------------------------------------------|
D|---9-0-7-0-6-0-4-0-2------2s1-1s2-2s4-4s2-2s1-1s2--|
A|---------------------------------------------------|
E|-0----------------------0--------------------------|

A black eyed he called at my door  (repeat main pattern)
A black eyed he called for more

e|-----------------------------------------------------|
B|-----------------------------------------------------|
G|-----------------------------------------------------|
D|----------7-7-7-6------------------7-6---------------|
A|--7-7---------------6-7----7-7-------------6-7-7-----|
E|------<7>---------0------------<7>------7------------|


************************************

| (n)  Ghost note

************************************
Suggest correction
comments
print report bad tab
1 comment total.
0 reply
youngtree 10 Apr 13, 2013 07:26 AM

why its really good thank you

guest
You may want to rate the tab now too:
select rating
Wanna post a correction for this tab? Suggest correction