Oops, an error
Loading. Please wait.

Milk And Honey Tab

10,715 views 36 this week
2 commentsread comments
1 2 3 4 5
excellent!
x 6
add to favorites
launch autoscroll
font size
0
reset
how to read this tab
guitar tuner
Tab Pro tools
  • play this tab
  • loop segment
  • change instrument
  • show fretboard
  • metronome
×
Best way to learn
"Milk And Honey"
Autoscroll
slow
fast
+/-
esc
set tempo
stop
Contributor
Nick Drake - Milk and Honey

Capo - 2 fret

Intro:
   Am                            Am7/G
E:-------0-------0-------0-------------0-------0-------0-------------|
B:----0h1-----0h1-----0h1-----------0h1-----0h1-----0h1--------------|
G:---2-------2-------2-------------0-------0-------0-----------------|
D:-------------------------2-2----------------------------2-2--------|
A:-0-------0-------0-------0-0----------------------------0-0--------|
E:---------------------------0---3-------3-------3--------3-0--------|
   D9/F#                        D9/F
E:---------0---------0-----------------0------0----------------------|
B:----0h1-------0h1------1--------0h1-------3b--3--------------------|
G:---2---2---2-2---2---2---2-----2---2---2--------2-2----------------|
D:------------------------------------------------0-0----------------|
A:------------------------------------------------0-0----------------|
E:-2-----------2-------------0-1------------------1-1----------------|

   Am                               Esus        E
E:-------0-------0-------0-------0-------0----------0----------------|
B:----0h1-----0h1-----0h1-----0h1-------0----------0-----------------|
G:---2-------2-------2-------2---------2----------1------------------|
D:------------------------------------2----------2-------------------|
A:-0-------0-------0-------0-----------------------------------------|
E:----------------------------------0----------0---------------------|

Verses:
   Am              Am7/G                   D9/F#         D9/F
E:-------0-------0-------0-------0---------------0-------------0-----|
B:----0h1-----0h1-----0h1-----0h1-----------0h1-----------0h1----3b~-|
G:---2-------2-------0-------0-------------2---2---2-----2---2-------|
D:----------------------------------2-2------------------------------|
A:-0-------0------------------------0-0------------------------------|
E:-----------------3-------3--------3-0--2-----------0-1-------------|

  3x then...
      (which is 100% incorrect, but similar; it varies in every verse)
E:-------0-------0-------0-------0----------0------------------------|
B:----0h1-----0h1-----0h1-----0h1-------------0----------------------|
G:---2-------2-------0-------0------------2--------------------------|
D:--------------------------------------2----------------------------|
A:-0-------0---------------------------------------------------------|
E:-----------------3-------3---------0-------------------------------|

E:-------0----------0-----------0----0-------------------0-----------|
B:----0h1-1-1----0h1---------0h1---3---3-------0--------0------------|
G:---2----2-2---0-----0-----2-----------0----2-2-------1-------------|
D:--------2-2-------2-2---------------------2----2----2--------------|
A:-0------0-0-------0-0-0-------------------------2------------------|
E:--------0-0-03----3-3--0-2-------0-------0---------0---------------|


End:

E:-------0-------0-------0-------0--------0--------0-----------------|
B:----0h1-----0h1-----0h1-----0h1--------0--------0------------------|
G:---2-------2-------0-------0----------2--------1-------------------|
D:-------------------------------------2--------2--------------------|
A:-0-------0---------------------------------------------------------|
E:-----------------3-------3---------0--------0----------------------|

E:------0-----------------------------0--3-0--1-0---7------------------|
B:---0h1---------------------------0h1---1----1-----10-----------------|
G:--2------------0----------------2------2-2--2-2---9------------------|
D:-------2-2---2---2----2---2-----------------------10-----------------|
A:-0-----0-0--------------------0--------------------------------------|
E:---------0-3--------2---1--------------------------------------------|
comments
print report bad tab
2 comments total.
0 reply
EndlessMike wrote on December 24 2012, 03:14 pm

capo third fret. other than that, it's awesome! challenge: tab Nick's version of Tomorrow is a Long Time. i've yet to find a tab for his rendition, and i'm defs not good enough to attempt it myself.

0 reply
Devmarta wrote on February 27 2015, 03:53 am

Listening to this version capo is on second fret.

https://www.youtube.com/watch?v=vrgvZ_7KVuU

I want to post or [tab]
guest
You may want to rate the tab now too:
select rating
Please do not post tabs as comments. Select "correction" instead!