Oops, an error
Loading. Please wait.

Parasite Tab

version 2
version 2

Whole song

Interactive

2,087 views 15 this week
2 commentsread comments
1 2 3 4 5
please rate
add to favorites
launch autoscroll
font size
0
reset
how to read this tab
guitar tuner
Tab Pro tools
  • play this tab
  • loop segment
  • change instrument
  • show fretboard
  • metronome
×
Best way to learn
"Parasite"
Autoscroll
slow
fast
+/-
esc
set tempo
stop
Contributor
Difficulty
intermediate
This is a standard tuning version. The original is CGCFCE but they sound alike to 
me. No capo either.
Just hold the Em7 chord shape, and go from D to B on the B string. Here:

Do this for the verses
E-----0---5---0---|
B-3---------------|
G--0---0---0---0--|
D---2---2---2---2-|
A---------2-------|
E-0---0-------0---|


E-----0---5---0---|
B-2---------------|
G--0---0---0---0--|
D---2---2---2---2-|
A---------2-------|
E-0---0-------0---|


E-----0---5---0---|
B-1---------------|
G--0---0---0---0--|
D---2---2---2---2-|
A---------2-------|
E-0---0-------0---|


E--------6p5--0---| (2x)
B-----0-----------|
G-2h4-4-----------|
D-----------------|
A-----------------|
E-0--0--0-----0---|

and this for the chorus:
E-----0--------0----|
B-1--------1--------|
G--1-----1--1-------|
D-------------------|
A-3--3--3--3--3-----|
E-------------------|

E--------6p5--0---| (2x)
B-----0-----------|
G-2h4-4-----------|
D-----------------|
A-----------------|
E-0--0--0-----0---|
comments
We did not receive enough feedback on this tab! Please rate:
print report bad tab
1 2 3 4 5
2 comments total.
0 reply
YoussefFishere wrote on February 4 2013, 01:05 pm

For the bottom string, replace 5 with 4, and 6 with 5.

0 reply
YoussefFishere wrote on February 4 2013, 01:06 pm

This is a standard tuning version. The original is CGCFCE but they sound alike to 
me. No capo either.
Just hold the Em7 chord shape, and go from D to B on the B string. Here:

Do this for the verses
E-----0---4---0---|
B-3---------------|
G--0---0---0---0--|
D---2---2---2---2-|
A---------2-------|
E-0---0-------0---|

E-----0---4---0---|
B-2---------------|
G--0---0---0---0--|
D---2---2---2---2-|
A---------2-------|
E-0---0-------0---|

E-----0---4---0---|
B-1---------------|
G--0---0---0---0--|
D---2---2---2---2-|
A---------2-------|
E-0---0-------0---|

E--------5p4--0---| (2x)
B-----0-----------|
G-2h4-4-----------|
D-----------------|
A-----------------|
E-0--0--0-----0---|

and this for the chorus:
E-----0--------0----|
B-1--------1--------|
G--1-----1--1-------|
D-------------------|
A-3--3--3--3--3-----|
E-------------------|

E--------5p4--0---| (2x)
B-----0-----------|
G-2h4-4-----------|
D-----------------|
A-----------------|
E-0--0--0-----0---|

I want to post or [tab]
guest
You may want to rate the tab now too:
select rating
Please do not post tabs as comments. Select "correction" instead!