Oops, an error
Loading. Please wait.

Place To Be Tab

version 1
version 1

Whole song

Interactive

13,349 views 15 this week
1 commentread comment
1 2 3 4 5
2 more votes to show rating
add to favorites
launch autoscroll
font size
0
reset
how to read this tab
guitar tuner
Autoscroll
slow
fast
+/-
esc
set tempo
stop
Help us to improve Ultimate-Guitar.com Take our survey!
×
Difficulty
intermediate
Nick Drake - Place to be, demo version


i: index
m: middle
a: ring
p: thump


Tuning:

CGCFGE

E--------------------------03--|
G--------------------10---[12]-|   [X]:harmonics
F-------------[07]--[12]-------|
C-------[07]--[05]-------------|
G-[12]--[05]-------------------|
C-[07]-------------------------|

Capo 5

Intro
E----------0------------0-----0-----0-----0-|
G---0------------0---0-----0-----0-----0----|
F--0----0h2-----0-----0-----0-----0-----0---|
C-4--0------0--4--0----2-----2-----0-----0--|
G------0------0-----2-----2-----2-----2-----|
C-----0------0-----2-----2-----0-----0------|
  pimpppi  appppimpppmipa

verse
E------0------------0------------0-----0-----0-----0-|
G------------0------------0---0-----0-----0-----0----|  2X
F---0h2-----0----0h2-----0-----0-----0-----0-----0---|
C-------0--4--0------0--4--0----2-----2-----2-----2--|
G--0------0-----0------0-----2-----2-----2-----2-----|
C-0------0-----0------0-----2-----2-----2-----2------|

E------------------------------0-----------0-------|
G---0-----0--0--0-----0--0-----------0-----------0-|
F------4-----------4--------0-----0-----0-----0----|
C--------------------------------------------------|
G--4--4--4--4--4--4--4--4--0--2--2--2--2--2--2--0--|
C-4--4--4--4--4--4--4--4--0--2--2--2--2--2--2--0---|

E------------------------------0-----------0-----------0-------|
G---0-----0--0--0-----0--0-----------0-----------0-----------0-|
F------4-----------4--------0-----0-----0-----0-----0-----0----|
C--------------------------------------------------------------|
G--4--4--4--4--4--4--4--4--0--2--2--2--2--2--2--2--2--2--2--2--|
C-4--4--4--4--4--4--4--4--0--2--2--2--0--0--0--0--0--0--0--0---|
   .
   .
   .
Solo

E------0---------------------.    .-----------------------------|
G----------2---------0-------.    .-----------------------------|
F---0h2------2------0--------.    .---0--0---0--0---0--0---0--0-|
C-------0---0-0--0h4----2--0-.3X  .----0------0------0------0---|
G--0------0-----0------0--2--.    .--5--5---3--3---2--2---2--2--|
C-0------0-----0------0--0---.    .-0------0------0------0------|
  ppi  apppmpipppp  imppippi        ppmipm...

Tabed by tobi, dd, germany
Suggest correction
Give kudos to tab author, rate the tab!
1 2 3 4 5
comments
print report bad tab
1 comment total.
0 reply
Ashratempel 263 Nov 03, 2014 03:14 AM

didn't like this contribution

guest
You may want to rate the tab now too:
select rating
Wanna post a correction for this tab? Suggest correction