Oops, an error
Loading. Please wait.

Time Has Told Me tab

15,012 views 24 this week
no commentswrite comment
1 2 3 4 5
x 5
add to favorites
×
Save as Personal and add changes to this tab that will be seen only by you. Learn more ›
×
You can save this tab as Personal to edit and correct it or add notes. All changes will be seen only by you. Learn more »
launch autoscroll
font size
0
reset
how to read this tab
guitar tuner
edit
Autoscroll
slow
fast
+/-
esc
set tempo
stop
Time Has Told Me
Nick Drake
Standard Tuning

I really do apologize for the state of this tab. It could be cleaned up; made "pretty". 
It really just hit me one night to learn this amazing song and I could not find 
tabs anywhere. So, I wrote up this sketch of what I imagine the song to be. 
Its not accurate in any way other than giving someone the FEEL of the song
rather than how to play it.

This is also my first tab I've put up so, please, be gentle.

VERSE                                                                                   
|------------------------------------|
|-------3-------3-5-3--2---2--2-3-2--|
|-------2----2--2-4-2--2---2--2-2-2--|
|-------0----0--0-0-0--2---2--2-4-2--|
|-------0----0--0-5-0--0--0--0-0-0---|
|-0-0-0-2--2---2--3-2----------------|

                                          Not into Bridge
|---3-------3----2--2--2-2--2-0--------------------------------------|
|-2-------2---2--3--3--3-3--3-3-3--3----3-3-3-3--3-------------------|
|-4-------4---4--2--2--2-2--2-2-2--4----4-4-4-4|-4---1--1-1-1-1--2--1|
|-2---2---2---2--0-----0----0-0-0--4----4-4-4-4|-4-4-2--2-2-2-2--2--2|
|-0-----0-0---0----------------------2----2---2--2-0-2--2-2-2-2--4--2|
|--------------------------------------------------|-0-----------0--0|

BRIDGE          
|---------------------------------------------------------------------------------------|
|-2---2-2-2--2-----2---1---1-1-1--1--3--1-----------------------------------------------|
|-4---4-4-4--4-----4---3---3-3-3--3--1--3--2---2-2-2-2-2--2--2--2---2-2---1-1-1-1-1-2-1-|
|-3---3-3-3--3-----3---2---2-2-2--2--2--2--0---0-0-0-0-0--0--1--1---1-1---2-2-2-2-2-2-2-|
|-4-----4----4-----4---3----------3--3--3--3---3-3-3-3-x--3--2--2---2-2---2-2-2-2-2-4-2-|
|---------------4------------3-------------1-----1---1-1--1--2--2-----2---0---0---0-0-0-|

Verse:
        Time has told me
        You're a rare rare find
        A troubled cure
        For a troubled mind.

        And time has told me
        Not to ask for more
        Someday our ocean
        Will find its shore.

Bridge:

        So I`ll leave the ways that are making me be
        What I really don't want to be
        Leave the ways that are making me love
        What I really don't want to love.

Verse:
        Time has told me
        You came with the dawn
        A soul with no footprint
        A rose with no thorn.

        Your tears they tell me
        There's really no way
        Of ending your troubles
        With things you can say.

        And time will tell you
        To stay by my side
        To keep on trying
        'til there's no more to hide.

Bridge:
        So leave the ways that are making you be
        What you really don't want to be
        Leave the ways that are making you love
        What you really don't want to love.
Verse:
        Time has told me
        You're a rare rare find
        A troubled cure
        For a troubled mind.
        
        And time has told me
        Not to ask for more
        For some day our ocean
        Will find its shore.

            
            
Suggest correction
Creating personal tab
Creating personal tab
You can edit any tab online and save it as your Personal.

You can edit, replace or remove any tab part or add personal notes – all changes will be seen only by you.

Personal tabs can be accessed anytime from any device, even offline.
Learn more »
comments
print report bad tab
guest
You may want to rate the tab now too:
select rating
Wanna post a correction for this tab? Suggest correction