Oops, an error
Loading. Please wait.

Atomic Mind Tab

154 views 51 this week
no commentswrite comment
1 2 3 4 5
3 more votes to show rating
add to favorites
launch autoscroll
font size
0
reset
how to read this tab
guitar tuner
Autoscroll
slow
fast
+/-
esc
set tempo
stop
Help us to improve Ultimate-Guitar.com Take our survey!
×
Author
Difficulty
Tuning
intermediate
D# G# C# F# A# D#
About this tab version
Cant find this tab anywhere so here's my attempt at a transcription. Was this info helpful? Yes No
repeats this and next bit a few times

E|------------------------------------------------------------|
B|--------6--7--6--7--------------------6--7--7-----7--10--7--|
G|--7--9--------------9--7-----------------------9------------|
D|--------------------------9--9--7--9------------------------|
A|------------------------------------------------------------|
E|------------------------------------------------------------|

E|---------------------------------------------------------7--|
B|--------6--7--6--7--------------------6--7--7-----7--10-----|
G|--7--9--------------9--7-----------------------9------------|
D|--------------------------9--9--7--9------------------------|
A|------------------------------------------------------------|
E|------------------------------------------------------------|

then this bit
E|-----------------------------------7--10--7-----------------------------------------|
B|--------6--7--6--7---------------------------10-B-12-B-10--7--10--------------------|
G|--7--9--------------9--7------------------------------------------9-B-11-B-9--7-----|
D|--------------------------9--7--9------------------------------------------------9--|
A|------------------------------------------------------------------------------------|
E|------------------------------------------------------------------------------------|


************************************

| B - bend

************************************
Suggest correction
Give kudos to tab author, rate the tab!
1 2 3 4 5
comments
print report bad tab
guest
You may want to rate the tab now too:
select rating
Wanna post a correction for this tab? Suggest correction