Oops, an error
Loading. Please wait.
4,470 views 4 this week
1 commentread comment
1 2 3 4 5
accurate
x 6
add to favorites
launch autoscroll
font size
0
reset
transpose
0
reset
simplify chords
display chords
guitar tuner
Tab Pro tools
  • play this tab
  • loop segment
  • change instrument
  • show fretboard
  • metronome
×
Best way to learn
"Tonight"
Autoscroll
slow
fast
+/-
esc
set tempo
stop
Contributor
Difficulty
novice
-------------------------------------------------------------------------------
                             TONIGHT - Nick Jonas & The Administration
-------------------------------------------------------------------------------
Tabbed by: kasiajonas
Email: popolsku8@gmail.com

Tuning: Standard

Chords:
G# - 466544
F# - 244322
B7sus4 - x22200
Cm - x35543
E - 022100
A - 577655
B - 799877
Em - x79987
C#m - x46654

e|----------------------------------------------------------------------------|
B|----------------------------------------------------------------------------|
G|--9-9-9-8-9--9-9-9-8-9--9-9-9-8-9--9-9-14-11-9------------------------------|
D|----------------------------------------------------------------------------|x4
A|--7-7-7-6-7--7-7-7-6-7--7-7-7-6-7--7-7--12-9--7-----------------------------|
E|----------------------------------------------------------------------------|

G#     F#            B7sus4
 Well here we are again
G#        Cm                 E
 Throwing punch lines no one wins
G#      B             A
 As the morning sun begins to rise
E            F#                     A    B
We're fading fast and we won't work this out

         Em        B         A     
No we're not gonna work this out tonight
         Em        B         A    
No we're not gonna make this right
        Em     B                A  
So I'll give a kiss and say goodbye
             Em        B         A     
'Cause we're not gonna work this out tonight

e|----------------------------------------------------------------------------|
B|----------------------------------------------------------------------------|
G|--9-9-9-8-9--9-9-9-8-9--9-9-9-8-9--9-9-14-11-9------------------------------|
D|----------------------------------------------------------------------------|x4
A|--7-7-7-6-7--7-7-7-6-7--7-7-7-6-7--7-7--12-9--7-----------------------------|
E|----------------------------------------------------------------------------|

G#      F#                B7sus4
 Every single word's been said
G#          Cm              E
 Broke each other's hearts again
G#      B             A
 As the starlit sky begins to shine
E              F#       A       B
We're breaking down she screams out

         Em        B         A     
No we're not gonna work this out tonight
         Em        B         A    
No we're not gonna make this right
        Em     B                A  
So I'll give a kiss and say goodbye
             Em        B         A     
'Cause we're not gonna work this out tonight


Em                B    A  Bm C#m 
 We don't have to fight tonight
Em             B  A Bm C#m
 We just gotta try
Em                B    A  Bm C#m
 We don't have to fight tonight
Em             B  A Bm C#m
 We just gotta try tonight


e|----------------------------------------------------------------------------|
B|----------------------------------------------------------------------------|
G|--9-9-9-8-9--9-9-9-8-9--9-9-9-8-9--9-9-14-11-9------------------------------|
D|----------------------------------------------------------------------------|x4
A|--7-7-7-6-7--7-7-7-6-7--7-7-7-6-7--7-7--12-9--7-----------------------------|
E|----------------------------------------------------------------------------|

        Em     B                A  
So I'll give a kiss and say goodbye
             Em        B         A    
'Cause we're not gonna work this out tonight

             Em         B 
Well there's no need to fight
                   A      Bm C#m
We're just wasting time tonight
       Em        B             A            Bm   C#m
If you give it a try well then maybe you'll find we might work this out
   Em            B             A        Bm C#m
We know we're in love so let's keep it alive
Em          B                A            Bm                  C#m
Starting to see the mornight light and we finally worked this out


e|----------------------------------------------------------------------------|
B|----------------------------------------------------------------------------|
G|--9-9-9-8-9--9-9-9-8-9--9-9-9-8-9--9-9-14-11-9------------------------------|
D|----------------------------------------------------------------------------|(repeat till fades)
A|--7-7-7-6-7--7-7-7-6-7--7-7-7-6-7--7-7--12-9--7-----------------------------|
E|----------------------------------------------------------------------------|

comments
print report bad tab
1 comment total.
0 reply
seenahm wrote on August 9 2014, 11:49 am

Lack of accuracy. Clearly wrong.

I want to post or [tab]
guest
You may want to rate the tab now too:
select rating
Please do not post tabs as comments. Select "correction" instead!