Oops, an error
Loading. Please wait.

Music For Money Bass Tab

13 views 1 this week
no commentswrite comment
1 2 3 4 5
3 more votes to show rating
add to favorites
launch autoscroll
font size
0
reset
guitar tuner
Autoscroll
slow
fast
+/-
esc
set tempo
stop
Help us to improve Ultimate-Guitar.com Take our survey!
×
Author
Difficulty
novice
[Intro]

G|--12\-|-------------|----------------|----------------|----------------|
D|------|-------------|----------------|----------------|----------------|
A|------|-1-3----1-3--|----------------|--1-3--1-3------|----------------|
E|------|------3------|----------------|----------------|----------------|


G|--------------|----------------|------------|
D|--------------|----------------|------------|
A|--1-3----1-3--|----------------|--1-3--1-3--|
E|-------3------|----------------|------------|


[Verse 1]

G|--------------|----------------|----------------|----------------|
D|--------------|----------------|----------------|----------------|
A|--1-3----1-3--|----------------|--1-3--1-3------|----------------|
E|-------3------|----------------|----------------|----------------|


G|--------------|----------------|------------|
D|--------------|----------------|------------|
A|--1-3----1-3--|----------------|--1-3--1-3--|
E|-------3------|----------------|------------|


G|--------------|----------------|----------------|----------------|
D|--------------|----------------|----------------|----------------|
A|--3-5----3-5--|----------------|--3-5--3-5------|----------------|
E|-------5------|----------------|----------------|----------------|


G|--------------|----------------|----------------|----------------|---------------------|
D|--------------|----------------|------------12\-|----------------|---------------------|
A|--3-5----3-5--|----------------|--3-5--3-5------|-3--------------|---------------------|
E|-------5------|----------------|----------------|----------------|--(1-1-1)-1-1-1-1-1--|


[Interlude]

G|--------------|----------------|------------|
D|--------------|----------------|------------|
A|--1-3----1-3--|----------------|--1-3--1-3--|
E|-------3------|----------------|------------|


[Verse 2]

G|--------------|----------------|----------------|----------------|
D|--------------|----------------|----------------|----------------|
A|--1-3----1-3--|----------------|--1-3--1-3------|----------------|
E|-------3------|----------------|----------------|----------------|


G|--------------|----------------|------------|
D|--------------|----------------|------------|
A|--1-3----1-3--|----------------|--1-3--1-3--|
E|-------3------|----------------|------------|


G|--------------|----------------|----------------|----------------|
D|--------------|----------------|----------------|----------------|
A|--3-5----3-5--|----------------|--3-5--3-5------|----------------|
E|-------5------|----------------|----------------|----------------|


G|--------------|----------------|----------------|----------------|---------------------|
D|--------------|----------------|------------12\-|----------------|---------------------|
A|--3-5----3-5--|----------------|--3-5--3-5------|-3--------------|---------------------|
E|-------5------|----------------|----------------|----------------|--(1-1-1)-1-1-1-1-1--|


[Verse 3]

G|--------------|----------------|----------------|----------------|
D|--------------|----------------|----------------|----------------|
A|--1-3----1-3--|----------------|--1-3--1-3------|----------------|
E|-------3------|----------------|----------------|----------------|


G|--------------|----------------|------------|
D|--------------|----------------|------------|
A|--1-3----1-3--|----------------|--1-3--1-3--|
E|-------3------|----------------|------------|


G|--------------|----------------|----------------|----------------|
D|--------------|----------------|----------------|----------------|
A|--3-5----3-5--|----------------|--3-5--3-5------|----------------|
E|-------5------|----------------|----------------|----------------|


G|--------------|----------------|------------|
D|--------------|----------------|------------|
A|--3-5----3-5--|----------------|--3-5--3-5--|
E|-------5------|----------------|------------|


[Outro]

G|--------------|----------------|--------------|----------------| (x2)
D|--------------|----------------|--------------|----------------|
A|--3-5----3-5--|----------------|--3-5----3-5--|----------------|
E|-------5------|----------------|-------5------|----------------|


G|--------------|
D|--------------|
A|--3-5----3-5--|
E|-------5------|



**************************

| \ : slide down
| ( ) : fast

**************************

in regular sequence!
Suggest correction
Give kudos to tab author, rate the tab!
1 2 3 4 5
comments
print report bad tab
guest
You may want to rate the tab now too:
select rating
Wanna post a correction for this tab? Suggest correction