Oops, an error
Loading. Please wait.

Picking The Guitar tab

223 views 6 this week
1 commentread comment
1 2 3 4 5
3 more votes to show rating
add to favorites
×
Save as Personal and add changes to this tab that will be seen only by you. Learn more ›
×
You can save this tab as Personal to edit and correct it or add notes. All changes will be seen only by you. Learn more »
launch autoscroll
font size
0
reset
how to read this tab
guitar tuner
edit
Autoscroll
slow
fast
+/-
esc
set tempo
stop
Author
Difficulty
[Introduction] 
                         
e|-------|---------|------0---|-5--4-5----|---5-3---------|
B|-------|---------|--------3-|-5--5-5--2-|---3-3---------|
G|-------|---0-----|--0-1-----|-5--4-5--3-|---5-4--0--2-3-|
D|-------|-----3-2-|-4--------|-7--6-7--5-|---4-5---------|
A|----0-1|-2-------|----------|-7--7-7--4-|-5-------------|
E|--3----|---------|----------|-5--4-5----|---------------|


[Section 1]    

 0:05
e|---3-1--------|---3-1-------|----0----2-|-------0-------5-|----1--2--2-|-1--------|
B|-0------------|-0-----------|---1----1--|-----1-------4---|----0--1--1-|-0--------|
G|-------0--2-3-|-------0-----|--0----2---|---0-------5-----|----0--2--2-|-0--0-----|
D|--------------|---------4-3-|-2----1----|-2-------4-------|-0--0--1--0-|-0----4-3-|
A|--------------|-------------|-----------|-----------------|------------|----------|
E|--------------|-------------|-----------|-----------------|------------|----------|
  
 0:12
e|-----------------|----------------|---3-1-------|--3-1-------|-----0----2|-0-------|
B|-----------------|---------1------|-0-----------|0-----------|----1----1-|-1-------|
G|-----------------|-0-2-3-4---0-2-3|--------0-2-3|------0-----|--0----2---|-0-------|
D|-------0-1-2-3-4-|----------------|-------------|--------4-3-|-2----1----|-2-------|
A|-2-3-4-----------|----------------|-------------|------------|-----------|---3-2-1-|
E|-----------------|----------------|-------------|------------|-----------|---------|

 0:19
e|--------------5|----5--8-|-----------3--1---|------------|--3-1------|---3-1-------|
B|---------2--5--|----3--7-|---------0------3-|-1---1------|0---0------|-0---0-------|
G|-------2-------|----5--8-|-0-1-2-3----------|-------0-2-3|----0-0-2-3|-----0-0-----|
D|-----2---------|--0-4--7-|------------------|------------|-----------|---------4-3-|
A|-0-4-----------|---------|------------------|------------|-----------|-------------|
E|---------------|---------|------------------|---3--------|-----------|-------------|

 0:26
e|----0----2|----0---5-|----1--2-2-|-1--------|----------10-8----8-|--------|---3-1-------|
B|---1----1-|---1---4--|----0--1-1-|-0--------|-----10-8------10---|10------|-0-0-0-------|
G|--0----2--|--0---5---|----0--2-2-|-0--0---0-|-8-9----------------|---0-2-3|-------0-2-3-|
D|-2----1---|-2---4----|-0--0--1-0-|-0----4---|--------------------|--------|-------------|
A|----------|----------|-----------|----------|--------------------|--------|-------------|
E|----------|----------|-----------|----------|--------------------|--------|-------------|
    
 0:34
e|---3-1--------|----0----2-|-0-------|-------------5-|---5--8-|----------3-1----|-----4-|
B|-0-0-0--------|---1----1--|-1-------|---------2-5---|---3--7-|--------------3--|-1---3-|
G|-------0------|--0----2---|-0-------|-------2-------|---5--8-|-0-1-2-3-4-------|---0-4-|
D|---------4-3--|-2----1----|-2-------|-----2---------|-0-4--7-|-----------------|-----3-|
A|--------------|-----------|---3-2-1-|-0-4-----------|--------|-----------------|-------|
E|--------------|-----------|---------|---------------|--------|-----------------|-------|


[Section 2]
 
 
  0:42
e|---------5---|---------5---|---1---3-|---1-----5-|---0-------------|---0---0-|---------3-1-|
B|-----5-8-----|-----5-8-----|---3---2-|---3-----6-|-----3-0---------|---0---0-|-------1-----|
G|---5---------|---5---------|---2---3-|---2-----5-|-1-------1-------|---1---1-|-----2-------|
D|-7-----------|-7-----------|-0---2---|-3----7----|-----------2-0---|---------|---3---------|
A|-----------0-|-----------0-|---------|-----------|---------------2-|---------|-------------|
E|-------------|-------------|---------|-----------|-----------------|-4---0---|-1-----------|
 
  0:51
e|--------------4---|---------5---|-----------5--|--5-----5---|---5---5----|-----------------|
B|------------5-----|-------5-----|---------5----|--6-----5---|---6---6----|-5---------------|
G|----------4-------|-----5-------|------5-------|--7-----5---|---5---5----|---7-4-----------|
D|-------6----------|---7---------|---7----------|------------|-----7----6-|-------6---------|
A|----7-------------|-7-----------|-7------------|-5--6-7---7-|-8----------|---------7-4-----|
E|-0--------------0-|-----------0-|------------5-|------------|------------|-------------7-4-|

 0:57
e|---4----4-|-0-1-0--------|-----0-|----------5---|---------5--|---1---3-|---1----5-|
B|---5----5-|-------3-1-0--|-----3-|-----5-8------|-----5-8----|---3---2-|---3----6-|
G|---4----4-|--------------|-----1-|---5----------|---5--------|---2---3-|---2----5-|
D|---6----6-|--------------|-2---2-|-7------------|-7----------|-0---2---|-3----7---|
A|-7--------|--------------|-------|--------------|----------0-|---------|----------|
E|------7---|--------------|---0---|------------0-|------------|---------|----------|                      

 1:06 
e|---0--------------|---0---0-|---------3-1-|----------4---|---------5---|---------5--|
B|------3-0---------|---0---0-|-------1-----|--------5-----|-------5-----|-------5----|
G|-1--------1-------|---1---1-|-----2-------|-------4------|-----5-------|-----5------|
D|------------2-0---|---------|---3---------|-----6--------|---7---------|---7--------|
A|----------------2-|---------|-------------|---7----------|-7-----------|-7--------0-|
E|------------------|-4---0---|-1-----------|-0----------0-|-----------0-|------------|
       
  1:13
e|---1---3-|---1----5--|----0-------------|---0---0--|-0-1-0-------|-------------|
B|---3---2-|---3----6--|------3-0---------|---0---0--|-------3-1-0-|-------------|
G|---2---3-|---2----5--|-1--------1-------|---1---1--|-------------|-2-1-0-0-2-3-|
D|-0---2---|-3----7----|------------2-0---|----------|-------------|-------------|
A|---------|-----------|----------------2-|----------|-------------|-------------|
E|---------|-----------|------------------|-4---0----|-------------|-------------|


[Section 3]   

(variation of section 1)  

 1:19 
e|----3-1------|---3-1------|----0----2-|-------0-------5-|----1--2--2-|-1---------|
B|-0-----------|-0----------|---1----1--|-----1-------4---|----0--1--1-|-0---------|
G|-------0-2-3-|------0-----|--0----2---|---0-------5-----|----0--2--2-|-0--0---0--|
D|-------------|--------4-3-|-2----1----|-2-------4-------|-0--0--1--0-|------4----|
A|-------------|------------|-----------|-----------------|------------|-----------|
E|-------------|------------|-----------|-----------------|------------|-----------|

1:26 
e|-0------0-----|-0-----0-----------|---3--1-------|--3-1-------|-----0----2-|
B|-4/5----4/5---|-4/5---4/5---------|-0------------|0-----------|----1----1--|
G|-----5------5-|-----5----5-0-2-3--|--------0-2-3-|------0-----|--0----2----|
D|--------------|-------------------|--------------|--------4-3-|-2----1-----|
A|--------------|-------------------|--------------|------------|------------|
E|--------------|-------------------|--------------|------------|------------|

 1:32 
e|--0-------|--------------5-|---5--8-|-----------3-1---|-----0-|
B|--1-------|----------2-5---|---3--7-|---------------3-|-1---1-|
G|--0-------|--------2-------|---5--8-|-0-1-2-3-4-------|---0---|
D|--2-------|------2---------|-0-4--7-|-----------------|-------|
A|----3-2-1-|-0--4-----------|--------|-----------------|-------|
E|----------|----------------|--------|-----------------|-------|


[Section 4]

 1:38 
e|---5----6--|-------6-9-7-|---5----6-|-------6-9-7-|---6---5-|-6-------|---4-4----|
B|---6----5--|-----6-------|---6----5-|-----6-------|---5---4-|-5-------|---3 3----|
G|-5----6----|---6---------|-5---6----|---6---------|---6---5-|-6-------|---4-4----|
D|-----------|-6-----------|----------|-6-----------|-5---4---|-5-------|-0--------|
A|-----------|-------------|----------|-------------|---------|---2-3-4-|------4-5-|
E|-----------|-------------|----------|-------------|---------|---------|----------|
 
 1:46                                                                             
e|---5-5-5-|---5---6-|-------6-9-7-|---5---6-|--------6-9-7-|---6---5-|-6-------|---3---0-|
B|---5-5-5-|---6---5-|-----6-------|---6---5-|-----6--------|---5---4-|-5-------|---3---1-|
G|---5-5-5-|-5---6---|---6---------|-5---6---|---6----------|---6---5-|-6-------|---4---0-|
D|---------|---------|-6-----------|---------|-6------------|-5---4---|-5-------|---5---2-|
A|-7-------|---------|-------------|---------|--------------|---------|---2-3-4-|-5---3---|
E|---------|---------|-------------|---------|--------------|---------|---------|---------|
 
 1:56
e|---1-1-1-|---5---6-|-------6-9-7-|----5----6-|--------6-9-7-|---6---5-|-6-------|
B|---1-3-1-|---6---5-|-----6-------|----6----5-|-----6--------|---5---4-|-5-------|
G|---2-2-2-|-5---6---|---6---------|-5----6----|---6----------|---6---5-|-6-------|
D|---3-3-3-|---------|-6-----------|-----------|-6------------|-5---4---|-5-------|
A|---------|---------|-------------|-----------|--------------|---------|---2-3-4-|
E|1--------|---------|-------------|-----------|--------------|---------|---------|

 2:04 
e|---3---|-0---3-0-|---5----6-|--------6-9-7-|----5----6-|--------6-9-7-|---6---5-|
B|---3-3-|-1---3-1-|---6----5-|-----6--------|----6----5-|-----6--------|---5---4-|
G|---3-3-|-3---0-3-|-5---6----|---6----------|-5----6----|---6----------|---6---5-|
D|---5-3-|-2-----2-|----------|-6------------|-----------|-6------------|-5---4---|
A|-5-----|-3-3---3-|----------|--------------|-----------|--------------|---------|
E|-----3-|---------|----------|--------------|-----------|--------------|---------|

 2:12 
e|-6-------|---3---0--|---0---1-----|-3-----|--------|---------|---3-----|
B|-5-------|---3---1--|---1---1-----|3------|--------|---------|---3-----|
G|-6-------|---4---3--|---0---2---4-|---2-1-|-0--2-1-|-0-1-2-3-|-4-4-2-3-|
D|-5-------|---5---2--|---2---3--5--|-------|--------|---------|---5-----|
A|---2-3-4-|-5---3----|---3---3-----|-------|--------|---------|---5-----|
E|---------|----------|-1-----------|-------|--------|---------|---3-----|
                                  arpeggio

                                                                  
[Section 5]

  2:21 
e|---3-1--------|---3-1-------|----0----2-|-------0-------5-|----1--2--2-|-1-------|
B|-0------------|-0-----------|---1----1--|-----1-------4---|----0--1--1-|-0-------|
G|-------0--2-3-|-------0-----|--0----2---|---0-------5-----|----0--2--2-|-0--0----|
D|--------------|---------4-3-|-2----1----|-2-------4-------|-0--0--1--0-|-0----4-3|
A|--------------|-------------|-----------|-----------------|------------|---------|
E|--------------|-------------|-----------|-----------------|------------|---------| 
   
 2:28                
e|-----------------|----------------|---3-1-------|--3-1-------|-----0----2|-0-------|
B|-----------------|---------1------|-0-----------|0-----------|----1----1-|-1-------|
G|-----------------|-0-2-3-4---0-2-3|--------0-2-3|------0-----|--0----2---|-0-------|
D|-------0-1-2-3-4-|----------------|-------------|--------4-3-|-2----1----|-2-------|
A|-2-3-4-----------|----------------|-------------|------------|-----------|---3-2-1-|
E|-----------------|----------------|-------------|------------|-----------|---------|
   
2:35
e|--------------5|----5--8-|-----------3--1---|------------|--3-1------|---3-1-------|
B|---------2--5--|----3--7-|---------0------3-|-1---1------|0---0------|-0---0-------|
G|-------2-------|----5--8-|-0-1-2-3----------|-------0-2-3|----0-0-2-3|-----0-0-----|
D|-----2---------|--0-4--7-|------------------|------------|-----------|---------4-3-|
A|-0-4-----------|---------|------------------|------------|-----------|-------------|
E|---------------|---------|------------------|---3--------|-----------|-------------|

2:42
e|----0----2|----0---5-|----1--2-2-|-1---------|----------10-8---10|--------|---3-1------|
B|---1----1-|---1---4--|----0--1-1-|-0---------|-----10-8------8---|-8------|-0-0-0------|
G|--0----2--|--0---5---|----0--2-2-|-0--0----0-|-8-9---------------|---0-2-3|-------0-2-3|
D|-2----1---|-2---4----|-0--0--1-0-|-0-----4---|-------------------|--------|------------|
A|----------|----------|-----------|-----------|-------------------|--------|------------|
E|----------|----------|-----------|-----------|-------------------|--------|------------|
  
 2:49 
e|---3-1-------|----0----2-|-0-------|--------------5-|---5--8-|-----------3-1----|-----0-|
B|-0-0-0-------|---1----1--|-1-------|----------2-5---|---3--7-|---------------3--|-1---1-|
G|-------0-----|--0----2---|-0-------|--------2-------|---5--8-|-0-1-2-3-4--------|---0-0-|
D|---------4-3-|-2----1----|-2-------|------2---------|-0-4--7-|------------------|-----2-|
A|-------------|-----------|---3-2-1-|-0--4-----------|--------|------------------|-----3-|
E|-------------|-----------|---------|----------------|--------|------------------|-------|


************************************

| /  Slide up  

************************************

            
            
Suggest correction
Creating personal tab
Creating personal tab
You can edit any tab online and save it as your Personal.

You can edit, replace or remove any tab part or add personal notes – all changes will be seen only by you.

Personal tabs can be accessed anytime from any device, even offline.
Learn more »
Give kudos to tab author, rate the tab!
1 2 3 4 5
comments
print report bad tab
1 comment total.
0 reply
beatboy65 4,968 May 25, 2016 08:07 AM

Comments removed from the tab
This was recorded first in 1922 and released with "teasing the frets". It has been claimed to be the first guitar solo recording on disc.
The tab is based on the 1931 re-recording which is of much better quality. It can be found on youtube.

guest
You may want to rate the tab now too:
select rating
Wanna post a correction for this tab? Suggest correction