Oops, an error
Loading. Please wait.

Fever To The Form chords

version 3
version 3

Whole song

7,275 views 66 this week
2 commentsread comments
1 2 3 4 5
x 11
add to favorites
×
Save as Personal and add changes to this tab that will be seen only by you. Learn more ›
×
You can save this tab as Personal to edit and correct it or add notes. All changes will be seen only by you. Learn more »
launch autoscroll
font size
0
reset
transpose
0
reset
display chords
guitar tuner
edit
Autoscroll
slow
fast
+/-
esc
set tempo
stop
Strumming
There is no strumming pattern for this song yet. and get +5 IQ
Nick Mulvey Fever to the Form

1st capo 1st fret
2nd capo 3rd fret (E string open)

the hammer-on happens with the chord change

Figure 1


     F 4x             Am 2x            G(use ring finger for bassnote!) 2x

g |--0----------------0----------------3-----------------------------------------|
d |--1----------------1----------------0-----------------------------------------|
Bb|--0h2--2p0---------0h2--2p0---------0h2--2p0----------------------------------|
F |--3----------------2----------------0-----------------------------------------|
C |--3----------------0----------------2-----------------------------------------|
F |--x----------------x----------------3-----------------------------------------|


Figure 2

     F 4x             Am  2x                G 2x

g |--0h5--8--5--0-----0h3--3---5---3---0----0h3--5--3--0--------------------------|
d |--6----6--6--6-----1----1---1---1---1----0----0--0--0--------------------------|
Bb|--5----5--5--5-----0----0---0---0---0----0----0--0--0--------------------------|
F |-------------------2----2---2---2---2----0----0--0--0--------------------------|
C |-----------------------------------------2----2--2--2--------------------------|
F |-----------------------------------------3----3--3--3--------------------------|


Intro

Figure 1

F        Am    G



G                   F
So Whether music or madness
                      Am
Live by one of the two
                 G
By one of the two
                           F
Go on, fill your heart up with gladness
                     Am
Not a moment too soon
                     G
Not a moment too soon

G                  F
Should we ration the reasons
                          Am
To the charts that ignore
              G
Of this I've never been sure

G                 F
So I will follow the feeling
                          Am
And sing fever to the form
                         G
Oh my fever to the form


G         F               Am      G
mmm mmmmm mmmmmmmmmmmmm   mmmmmmmm


G                      F
Cos' the very thing you're afraid, afraid of
                        Am
It keeps you clean but unclear
              G
Clean but unclear

G                       F
Is the dirt that you're made, you're made of
                         Am
And thats nothing to fear
                         G
No, its nothing my dear

G                    F
How did I know what you're thinking
                Am                  G
Maybe I thought it before

 G                                F
Maybe that's why i'm at your window
            Am
Hear me at your door
                     G
Singing give me some more

(keep playing G untill switching to Figure 2)

(from here on play Figure 2)

G                 F
Oh fever to the form
                  Am
Won't you hear me at your door
                         G
Singing give me some more
G                       F
Cos' you were never empty
                           Am
And we've been here before
                               G
Yes, we've been here before
G                       F
But now theres always plenty
                    Am
Yet still we ask for more
                         G
Singing fever to the form



G         F               Am      G
mmm mmmmm mmmmmmmmmmmmm   mmmmmmmm
G         F               Am      G
mmm mmmmm mmmmmmmmmmmmm   mmmmmmmm



End with playing Figure 2 end on G
Suggest correction
Creating personal tab
Creating personal tab
You can edit any tab online and save it as your Personal.

You can edit, replace or remove any tab part or add personal notes – all changes will be seen only by you.

Personal tabs can be accessed anytime from any device, even offline.
Learn more »
comments
print report bad tab
2 comments total.
+1 reply
dmcomaddress 10 Oct 19, 2016 09:23 AM, edited at 04:23 pm

On this video, the way he plays the F chord is x33011 https://youtu.be/ZleihMGlDP4

+1 reply
Gitarrenkoala 51 Dec 04, 2016 03:42 PM

Could anybody explain what the second capo on the 1st fret is for? He seems to not even play the open E string (or F with the capo).

guest
You may want to rate the tab now too:
select rating
Wanna post a correction for this tab? Suggest correction