Oops, an error
Loading. Please wait.

Unconditional Acoustic chords

1,309 views 105 this week
no commentswrite comment
1 2 3 4 5
1 last vote to show rating
add to favorites
×
Save as Personal and add changes to this tab that will be seen only by you. Learn more ›
×
You can save this tab as Personal to edit and correct it or add notes. All changes will be seen only by you. Learn more »
launch autoscroll
font size
0
reset
transpose
0
reset
simplify chords
display chords
guitar tuner
edit
Autoscroll
slow
fast
+/-
esc
set tempo
stop
About this tab version
This is tabbed straight from the Facebook live stream Nick hosted on 17th May 2017. Just Nick with no band. Was this info helpful? Yes No
Strumming
There is no strumming pattern for this song yet. and get +5 IQ
Tabbed by: Sam Powell
Capo 2nd fret BUT leave the bass E open.
Nick's strumming pattern is too complex to accurately tab out, have some
fun working that out by yourselves!
Tab on top - lyrics below... Enjoy!
https://www.youtube.com/watch?v=2zjXkn4wv4E&t=1s

[Intro]
    C6        C      Gadd9      D6       D7    D7sus4    Gadd9      D6
e|---5--------3--------3--------2--------2--------3--------3--------2---|
B|---1--------1--------0--------0--------1--------1--------0--------0---|
G|---0--------0--------2--------2--------2--------2--------2--------2---|
D|---2--------2--------0--------0--------0--------0--------0--------0---|
A|---3--------3--------2--------2--------3--------3--------2--------2---|
E|----------------------------------------------------------------------|

C6             C
Unconditional, Venus by my side.
Gadd9           D6
Uncontainiable, nowhere you can hide.
D7                      D7sus4
It's something to know, no matter where you are.
Gadd9                          D6
Venus light is shining in your star.

C6                               C
And it's back at my heart again, saying that you do.
Gadd9        D6
Indivisible, loving inside you.
D7                    D7sus4
It's nothing to know, no matter where you are.
Gadd9                          D6
Venus light is shining in your star.

[Chorus]
*For Em chord, place finger where capo                                    *This is for the final line of the
would be if it was covering all 6 strings*                                 verse, it morphs into the Chorus*

    Am7      Am7      Bm7       Em      Am7      Am7      Bm7       Em       Am7      Am7       Em       D6
e|---0--------0--------2--------3--------0--------0--------2--------3----|----0--------0--------3--------2h5-|
B|---1--------1--------3--------0--------1--------1--------3--------0----|----1--------1--------0--------0---|
G|---0--------0--------2--------0--------0--------0--------2--------0----|----0--------0--------0--------2---|
D|---2--------2--------4--------2--------2--------2--------4--------2----|----2--------2--------2--------0---|
A|---0--------0--------2--------2--------0--------0--------2--------2----|----0--------0--------2--------0---|
E|------------------------------0-----------------------------------0----|----------------------0------------|

Am7                 Am7            Bm7
So come one, it was right here all along.
            Em                   Am7
What you're looking for is never gone.
        Am7               Bm7
How did we do this? We're here!
        Em                Am7   Em   D6
Hold me close and hold me near, yeah.

    Am7      Am7       Em       D6     Am7      Am7       Em       D6
e|---0--------0--------3--------2h5-----0--------0--------3--------2h5-|
B|---1--------1--------0--------0-------1--------1--------0--------0---|
G|---0--------0--------0--------2-------0--------0--------0--------2---|
D|---2--------2--------2--------0-------2--------2--------2--------0---|
A|---0--------0--------2--------0-------0--------0--------2--------0---|
E|---------------------0----------------------------------0------------|

Am7       Am7      Em      D6
Unconditional, yeah.
Am7       Am7      Em      D6
Unconditional, yeah.

[Verse]
     C6       C      Gadd9      D6       D7     D7sus4   Gadd9      D6
e|---5--------3--------3--------2--------2--------3--------3--------2---|
B|---1--------1--------0--------0--------1--------1--------0--------0---|
G|---0--------0--------2--------2--------2--------2--------2--------2---|
D|---2--------2--------0--------0--------0--------0--------0--------0---|
A|---3--------3--------2--------2--------3--------3--------2--------2---|
E|----------------------------------------------------------------------|

C6              C
Uncontrollable, how could I resist?
Gadd9              D6
Underneath it all, the way that you undress.
D7                D7sus4
Irreplacable, the mark upon your lips.
Gadd9                          D6
Venus light is shining in your kiss.

[Chorus]
*For Em chord, place finger where capo                                    *This is for the final line of the
would be if it was covering all 6 strings*                                 verse, it morphs into the Chorus*

    Am7      Am7      Bm7       Em      Am7      Am7      Bm7       Em       Am7      Am7       Em       D6
e|---0--------0--------2--------3--------0--------0--------2--------3----|----0--------0--------3--------2h5-|
B|---1--------1--------3--------0--------1--------1--------3--------0----|----1--------1--------0--------0---|
G|---0--------0--------2--------0--------0--------0--------2--------0----|----0--------0--------0--------2---|
D|---2--------2--------4--------2--------2--------2--------4--------2----|----2--------2--------2--------0---|
A|---0--------0--------2--------2--------0--------0--------2--------2----|----0--------0--------2--------0---|
E|------------------------------0-----------------------------------0----|----------------------0------------|

Am7                 Am7        Bm7
Oh, come on, it was right here along.
            Em                Am7
What you're missing was never gone.
        Am7               Bm7
How did we do this? We're here!
        Em                Am7   Em   D6
Hold me close and hold me near, yeah.

    Am7      Am7       Em       D6     Am7      Am7       Em       D6
e|---0--------0--------3--------2h5-----0--------0--------3--------2h5-|
B|---1--------1--------0--------0-------1--------1--------0--------0---|
G|---0--------0--------0--------2-------0--------0--------0--------2---|
D|---2--------2--------2--------0-------2--------2--------2--------0---|
A|---0--------0--------2--------0-------0--------0--------2--------0---|
E|---------------------0----------------------------------0------------|

Am7       Am7      Em      D6
Unconditional, yeah.
Am7       Am7      Em      D6
Unconditional, yeah.

[Outro]
    Am7      Am7       Em       D6     Am7      Am7       Em       D6
e|---0--------0--------3--------2h5-----0--------0--------3--------2h5-|
B|---1--------1--------0--------0-------1--------1--------0--------0---|
G|---0--------0--------0--------2-------0--------0--------0--------2---|
D|---2--------2--------2--------0-------2--------2--------2--------0---|
A|---0--------0--------2--------0-------0--------0--------2--------0---|
E|---------------------0----------------------------------0------------|

*Chant, shout, let it all out! Ah yah yeaheahh hooo oh oh ohh!*
     C6       C      Gadd9      D6       D7    D7sus4      Em       D6
e|---5--------3--------3--------2--------2--------3--------3--------2h5-|
B|---1--------1--------0--------0--------1--------1--------0--------0---|
G|---0--------0--------2--------2--------2--------2--------3--------2---|
D|---2--------2--------0--------0--------0--------0--------2--------0---|
A|---3--------3--------2--------2--------3--------3--------2--------0---|
E|---------------------------------------------------------0------------|

Ohh. Yeah. Mmmmm. Mmmmmm.
    Am7      Am7       Em       D6     Am7      Am7       Em       D6
e|---0--------0--------3--------2h5-----0--------0--------3--------2h5-|
B|---1--------1--------0--------0-------1--------1--------0--------0---|
G|---0--------0--------0--------2-------0--------0--------0--------2---|
D|---2--------2--------2--------0-------2--------2--------2--------0---|
A|---0--------0--------2--------0-------0--------0--------2--------0---|
E|---------------------0----------------------------------0------------|

Am7       Am7      Em      D6
Unconditional, yeah.
Am7       Am7      Em      D6
Unconditional, yeah.

            
            
Suggest correction
Creating personal tab
Creating personal tab
You can edit any tab online and save it as your Personal.

You can edit, replace or remove any tab part or add personal notes – all changes will be seen only by you.

Personal tabs can be accessed anytime from any device, even offline.
Learn more »
Give kudos to tab author, rate the tab!
1 2 3 4 5
comments
print report bad tab
guest
You may want to rate the tab now too:
select rating
Wanna post a correction for this tab? Suggest correction